Oops, an error
Loading. Please wait.

Dont Walk Away tab

4,309 views 3 this week
4 commentsread comments
1 2 3 4 5
x 5
add to favorites
×
Save as Personal and add changes to this tab that will be seen only by you. Learn more ›
×
You can save this tab as Personal to edit and correct it or add notes. All changes will be seen only by you. Learn more »
launch autoscroll
font size
0
reset
how to read this tab
guitar tuner
edit
Autoscroll
slow
fast
+/-
esc
set tempo
stop
Author
The Mayfield Four
"Don't Walk Away" From the album Fallout
Standard tuning
Guitar tab by Harold Edward Nichols III
 
(0:04) Intro

e|------3------------3-----------------------3------------------3--------|
B|--------3---------------3------------------------3----------------3----|
G|-----------0----------------0-------------------------0--------------0-|
D|-----------------------------------------------------------------------|
A|----------------0--------------------1----------------------3----------|
E|--3--------------------------------------------------------------------|
 
(0:37)  "Dissonance is the only song I want to sing"
 
e|--------------3------------------------------------3-------------------|
B|----------3-------3---------------------------3---------3--------------|
G|-----0----------------0------------------0--------------------0--------|
D|--------------------------0-----------------------------------------0--|
A|-1-----------------------------0---------------------------------------|
E|-----------------------------------------------------------------------|

e|-------------------3------------------------------------------------3-|
B|-----------3-------------3-------------------------------------3------|
G|---0----------------------------0------------------------0------------|
D|---------------------------------------0------------------------------|
A|--1---------------------------------------------0---------------------|
E|----------------------------------------------------------------------|
 
(0:45)
e|------------3---------------------------------------------3--------------|
B|------------3--------3------------------------------3-----------3--------| 
G|---0-----------------------0--------------------0-------------------0----| 
D|----------------------------------0------------------------------------0-| 
A|-1---------------------------------------0-------------------------------|
E|-------------------------------------------------------------------------|
                                                                                 
          Csus
 
e|------------------------3-----------------------------------3------------|
B|----------------3-------------3-----------------------------3------------|
G|---------0---------------------------0----------------------0------------|
D|--------------------------------------------0---------------0------------|
A|-----1------------------------------------------------------3------------|
E|-------------------------------------------------------------------------|
 
(0:55) Chorus 
             G
        "Don't walk away....Don't walk away, I surrender..............to you 
today
 
e|--3------0--------0--------0--0----0---------0----1--0--------------------|
B|--3------0--------0--------3--1----0---------0----1--0--------------------|
G|--0------2--------0--------0--0----0---------0----1--2--2--0--2/4/2--2--0-|
D|--0------3--------2--------2--2----2---------2----1--3--------------------|
A|--2------3--------2--------2--2----2---------2-------3--------------------|
E|--3------1--------0--------0--0----0---------0-------1--------------------|
 
(First Strum up with G chord and then listen to song for strumming the 
strumming patterns!)
 
(1:12) Chorus continued
      G
       "This bending knee....... is breaking me, I surrender....I'll 
surrender..............."
|---3------------------------0--------------------0----------------0-----|
|---3------------------------0--------------------0----------------0-----|
|---0------------------------2--------------------0----------------2-----|
|---0------------------------3--------------------2----------------3-----|
|---2------------------------3--------------------2----------------3-----|
|---3------------------------1--------------------0----------------1-----|

(Again listen for strumming patterns!)
 
(1:33) Verse 2
|------3-----------------3------------------3----------------3--------------|
|----------3-----------------3------------------3----------------3----------|
|--------------0------------------0------------------0---------------0------|
|---------------------------------------------------------------------------|
|----------------------0-----------------1-----------------3----------------|
|---3-----------------------------------------------------------------------|
 
(2:14) Chorus
      G
        "Don't walk away....Don't walk away, I surrender..............to you 
today
|----3----0--------0---------0--0----0-------0----1--0----------------------|
|----3----2--------0---------0--0----0-------0----1--2---2--0--2/4/2--2--0--|
|----0----3--------2---------2--2----2-------2----1--3----------------------|
|----2----3--------2---------2--2----2-------2-------3----------------------|
|----3----1--------0---------0--0----0-------0-------1----------------------|

(First Strum up with G chord and then listen to song for strumming the strumming 
patterns!)
 
(2:30) Chorus continued
     
        "This bending knee....... is breaking me, I surrender...
|---3----------------------------0--------------------0----------------|
|---3----------------------------0--------------------0----------------|
|---0----------------------------2--------------------0----------------|
|---0----------------------------3--------------------2----------------|
|---2----------------------------3--------------------2----------------|
|---3----------------------------1--------------------0----------------|

(Again listen for strumming patterns!)
 
(2:42) 
    D
  "I surrender.....It will be better....This is my vow....to change......oh oh 
ohhhhh"
|--2----------------3---------------------3---------------------1-----------|
|--3----------------3---------------------3---------------------1-----------|
|--2----------------0---------------------0---------------------2-----------|
|--0----------------0---------------------0---------------------3-----------|
|-------------------3---------------------2---------------------3-----------|
|------------------------------------------3---------------------1----------|
(Again listen for strumming patterns!)
 
(2:59) Guitar Solo
|-----------------------------------------------------------------------|
|-----------------------------------------------------------------------|
|12b---12--14--15--16--16b-----12-14-15-16---9b-----7~~-------7--9--7~~-|
|-----------------------------------------------------------------------|
|-----------------------------------------------------------------------|
|-----------------------------------------------------------------------|

(Make only a 1/4 bend with 12b and 16b)                       (Full bend with 9b)
 
(3:11) 
|------------------------------------------------------------------------|
|-----8b------8/12b--13b-13b-13b-13b-13b-13b-13b-13b-13b-12b-10b-8~~-----|
|-5~--------5~-------------5~--------------------------------------------|
|------------------------------------------------------------------------|
|------------------------------------------------------------------------|
|------------------------------------------------------------------------|

(Full bends with 8b, 8/12b, and 13b)
 
(3:28) Verse 3
|------3--------------3-----------------3-----------------3----------|
|---------3--------------3-----------------3-----------------3-------|
|-----------0---------------0------------------0-----------------0---|
|--------------------------------------------------------------------|
|-----------------0-----------------1-------------------3------------|
|---3----------------------------------------------------------------|
  Repeat till chorus 

(3:43) Guitar 2
                    "The race has been run, and all is said and done, 
|---------------------------------------------------------------|
|---3------------3----------------------------------------------|
|---3p0---------0-----------------------------------------------|
|---------------------------------------------------------------|
|---------------------------------------------------------------|
|---------------------------------------------------------------|

listen for strumming pattern!
 
(3:53) Guitar 2 continued
     "Have the ashes been swept...away......................"
|---------------------------------------3-----3-----3-----3--------|
|---------------------------------------3-----3-----3-----3--------|
|---------------------------------------0-----0-----0-----0--------|
|---------------------------------------0-----0-----0-----0--------|
|---------------------------------------0-----0-----1-----3--------|
|---------------------------------------3--------------------------|

?Listen for strumming patterns!)
 
(4:02) Chorus
      G
        "Don't walk away....Don't walk away, I surrender..............to you 
today
 ----3-----0--------0-------0--0----0----0----1--0----------------------|
|----3-----0--------0-------3--1----0----0----1--0----------------------|
|----0-----2--------0-------0--0----0----0----1--2---2--0--2/4/2--2--0--|
|----0-----3--------2-------2--2----2----2----1--3----------------------|
|----2-----3--------2-------2--2----2----2-------3----------------------|
|----3-----1--------0-------0--0----0----0-------1----------------------|
(First Strum up with G chord and then listen to song for strumming the strumming 
patterns!)
 
(4:17) Chorus continued 
       "This bending knee....... is breaking me, so 
I                    surrender
|---3----------------------------0---------------------0-------------|
|---3----------------------------0---------------------0-------------|
|---0----------------------------2---------------------0-------------|
|---0----------------------------3---------------------2-------------|
|---2----------------------------3---------------------2-------------|
|---3----------------------------1---------------------0-------------|
(Again listen for strumming patterns!)
 
(4:29)
        
"I                      surrender
|---1--------------2-----------3--------3------------1-----------------|
|---1--------------3-----------3--------3------------1-----------------|
|---2--------------2-----------0--------0------------2-----------------|
|---3--------------0-----------0--------0------------3-----------------|
|---3--------------------------3--------2------------3-----------------|
|---1-----------------------------------3------------1-----------------|
repeat till ending
(Again listen for strumming patterns!)                                
 
(5:02) Ending
 
|--0------1-----0---------------------------------3-------------------|
|--0------1-----0---------------------------------3-------------------|
|--0------1-----2---------------------------------0-------------------|
|--2------1-----3---(repeat 3 times)-----------3----------------------|
|--2-------------3----------------------------------------------------|
|--0-------------1----------------------------------------------------|
 
This is my first guitar tab and I am glad to say that it's a song by The 
Mayfield Four. I did my best on this song but I am still not sure with some 
parts of the song. No one has made a guitar tab for Mayfield, so I decided to 
get started on some. If you have any questions, comments or suggestions please 
email me at MF4Elite@earthlink.net 
 
Thanks and enjoy!         
 
Harold

mayfield four is cooler than alterbridge


jamesjerrold@yahoo.com
ghigz69@yahoo.com
habaratboo29@yahoo.com
hi sa mga taga bacoor at dasma cavite.. 
at sa bicolandia hall lerma: jackson, bano, jryan mike dwight

            
            
Suggest correction
Creating personal tab
Creating personal tab
You can edit any tab online and save it as your Personal.

You can edit, replace or remove any tab part or add personal notes – all changes will be seen only by you.

Personal tabs can be accessed anytime from any device, even offline.
Learn more »
comments
print report bad tab
4 comments total. Showing first comments. show 1 bad comment
+1 reply
?~Mart~? 185 Jun 11, 2008 07:50 AM

im gonna give you five stars, even though you said The Mayfield Four are better than Alter Bridge!!!!
No, but really, on a serious note, awesome tab dude
I Love the Mayfield Four!

0 reply
weiszed 10 Jun 23, 2008 12:52 PM

Instead of the series of 1's in the chorus, I believe you go back to a 022010, also I believe the solo is a bit off for the most part it's pretty good

guest
You may want to rate the tab now too:
select rating
Wanna post a correction for this tab? Suggest correction