Oops, an error
Loading. Please wait.

Mexican Guitars tab

1,382 views 6 this week
2 commentsread comments
1 2 3 4 5
2 more votes to show rating
add to favorites
×
Save as Personal and add changes to this tab that will be seen only by you. Learn more ›
×
You can save this tab as Personal to edit and correct it or add notes. All changes will be seen only by you. Learn more »
launch autoscroll
font size
0
reset
how to read this tab
guitar tuner
edit
Autoscroll
slow
fast
+/-
esc
set tempo
stop
-------------------------------------------------------------------------------
                             Mexican Guitars - The Menzingers
-------------------------------------------------------------------------------
Tabbed by: Cris Redon

This tab was something I picked real quick and there are a lot of details missing, like the intro for
example... sorry! Email me with any correction or with missing parts!
Cheers

Tuning: Drop D

Intro Lead
e|---------------------------------------------------------------------------|
B|---------------------------------------------------------------------------|
G|-------6h8-p8-6----x2------------------------------------------------------|
D|-6h8-----------------------------------------------------------------------|
A|---------------------------------------------------------------------------|
D|---------------------------------------------------------------------------|
not sure about the rest!!! sorry!

Intro Rhythm
e|---------------------------------------------------------------------------|x2
B|---------------------------------------------------------------------------|
G|-6--------------------------6----------------------------------------------|
D|-6-----------66-------------6--66-4----------------------------------------|
A|-4-Let ring--66---x2--------4--66-4----------------------------------------|
D|-------------66----------------66-4-let ring-------------------------------|

Verse 1
"You were an old friend..."
e|-----------------------------------------------------------------------------|
B|-----------------------------------------------------------------------------|
G|-6--------------------------------------3x--x8-------------------------------|
D|-6-------------6------------4-----------3x----4x--x8-------------------------|
A|-4--let ring---6------------4-----------1x----4x-----------------------------|
D|---------------6-let ring---4-let ring--------4x-----------------------------|

e|------------------------------------------------------------------------------------|
B|------------------------------------------------------------------------------------|
G|-6-----------------------------------3x--x8-------3x-x8-----------------------------|
D|-6-------------6------------4--------3x----4x--x8-3x---4x-x8-6x-x8-44---------------|
A|-4--let ring---6------------4--------1x----4x-----1x---4x----6x----44---------------|
D|---------------6-let ring---4x8------------4x----------4x----6x----44-let ring------|

Intro Repeat

Verse 1 Repeat

Breakdown "All the time.."
e|---------------------------------------------------------------------------|
B|---------------------------------------------------------------------------|
G|-6-------------------------------------------------------------------------|
D|-6-------------------repeat------------------------------------------------|
A|-4----let ring-------------------------------------------------------------|
E|---------------------------------------------------------------------------|

e|---------------------------------------------------------------------------|
B|---------------------------------------------------------------------------|
G|---------------------------------------------------------------------------|
D|--3-x16--4-x16-3-x16-4-x8-6--x8--------------------------------------------|
A|--3------4-----3-----4----6------------------------------------------------|
E|--3------4-----3-----4----6------------------------------------------------|

Outro "So does any one know..."
e|---------------------------------------------------------------------------|x2
B|---------------------------------------------------------------------------|
G|---------6-x8--------------------------------------------------------------|
D|---4-x8--6----6-x8-8-x8----------------------------------------------------|
A|---4-----4----6----8-------------------------------------------------------|
E|---4----------6----8-------------------------------------------------------|

"Im on cruise control..."
e|---------------------------------------------------------------------------|
B|---------------------------------------------------------------------------|
G|--------------6---------------Repeat with strumming------------------------|
D|--4-----------6------------------------------------------------------------|
A|--4-----------4--let ring--------------------------------------------------|
E|--4-let ring---------------------------------------------------------------|

"You were my old friend"
e|---------------------------------------------------------------------------|
B|---------------------------------------------------------------------------|
G|---------------------------------------------------------------------------|
D|--4-x32-----3--------------------------------------------------------------|
A|--4---------3--let ring----------------------------------------------------|
E|--4---------3--------------------------------------------------------------|


************************************

| /   slide up
| \   slide down
| h   hammer-on
| p   pull-off
| ~   vibrato
| +   harmonic
| x   Mute note
| b   Bend
| pb  Pre-bend
| br  Bend release
| pbr Pre-bend release
| brb Bend release bend

************************************

            
            
Suggest correction
Creating personal tab
Creating personal tab
You can edit any tab online and save it as your Personal.

You can edit, replace or remove any tab part or add personal notes – all changes will be seen only by you.

Personal tabs can be accessed anytime from any device, even offline.
Learn more »
Give kudos to tab author, rate the tab!
1 2 3 4 5
comments
print report bad tab
2 comments total.
0 reply
Mean Mr Mustard 5,762 Sep 23, 2014 07:58 AM

Sorry but this album's in half-step down, and the chords version posted was spot on, plus you missed the "I did what I did to get away from this" part

0 reply
cristobal.red 35 Sep 29, 2014 03:15 PM

yeah my bad, i did it in a bit of a hurry, it still sounds close; not accurate though.

guest
You may want to rate the tab now too:
select rating
Wanna post a correction for this tab? Suggest correction