Oops, an error
Loading. Please wait.

Time Tables tab

version 2
version 2

Whole song

  • More complete than version one, including full cho... Show more
79 views 1 this week
no commentswrite comment
1 2 3 4 5
2 more votes to show rating
add to favorites
×
Save as Personal and add changes to this tab that will be seen only by you. Learn more ›
×
You can save this tab as Personal to edit and correct it or add notes. All changes will be seen only by you. Learn more »
launch autoscroll
font size
0
reset
how to read this tab
guitar tuner
edit
Autoscroll
slow
fast
+/-
esc
set tempo
stop
Author
Difficulty
About this tab version
More complete than version one, including full chords, rhythms, and missing sections/riffs. Was this info helpful? Yes No
"Time Tables" by The Menzingers

Tab 1 is quite accurate but missing details and parts, as well as not well-organized. But thanks for the 
start, d as f. I gave this an intermediate difficulty rating just because of the funny timing of the lead
riff. Based on live footage, Tom May definitely plays barre chords throughout the song. As far as I can tell,
Greg Barnett just plays the chords that I have labeled over most of the riffs, usually pretty similar to May's
parts. Finally, I do think that the Verse 3 here is iffy. It's definitely notes ringing out (as opposed to 
strummed chords), but I'm a little uncertain of the exact variation used. 


[Intro]
e|-------------------------|   \
B|-------------------------|    \
G|-----0-2p0------2p0------|     \
D|---2-------2p0------2p0--| X 3  \
A|-3-----------------------|       \
E|-------------------------|        |
                                    | X 2
e|-------------------------|        |
B|-------------------------|       /
G|--2-----0----------------|      /
D|--------------2-3-3p2-0--|     /
A|-------------------------|    /
E|-------------------------|   /

[Verse 1]
    C             E                A             F
e|--3-3-3--3-3-3--7-7-7--7-7-7--|--5-5-5--5-5-5--1-1-1--1-1-1--|
B|--5-5-5--5-5-5--9-9-9--9-9-9--|--5-5-5--5-5-5--1-1-1--1-1-1--|
G|--5-5-5--5-5-5--9-9-9--9-9-9--|--6-6-6--6-6-6--2-2-2--2-2-2--|
D|--5-5-5--5-5-5--9-9-9--9-9-9--|--7-7-7--7-7-7--3-3-3--3-3-3--|
A|--3-3-3--3-3-3--7-7-7--7-7-7--|--7-7-7--7-7-7--3-3-3--3-3-3--|
E|------------------------------|--5-5-5--5-5-5--1-1-1--1-1-1--|
    * *    * *    * *    * *       * *    * *    * *    * *
    A             F                C             G
e|--5-5-5--5-5-5--1-1-1--1-1-1--|--3-3-3--3-3-3--3-3-3-3-3-3--|
B|--5-5-5--5-5-5--1-1-1--1-1-1--|--5-5-5--5-5-5--3-3-3-3-3-3--|
G|--6-6-6--6-6-6--2-2-2--2-2-2--|--5-5-5--5-5-5--4-4-4-4-4-4--|
D|--7-7-7--7-7-7--3-3-3--3-3-3--|--5-5-5--5-5-5--5-5-5-5-5-5--|
A|--7-7-7--7-7-7--3-3-3--3-3-3--|--3-3-3--3-3-3--5-5-5-5-5-5--|
E|--5-5-5--5-5-5--1-1-1--1-1-1--|----------------3-3-3-3-3-3--|
    * *    * *    * *    * *       * *    * *    * * *          <--- slowly let off the PM
    C                             E
e|-----------------------------|-----------------------------|
B|-----------------------------|-----------------------------|
G|--5-5-5-5-5-5-5-5-5-5-5-5-5--|--9-9-9-9-9-9-9-9-9-9-9-9-9--|
D|--5-5-5-5-5-5-5-5-5-5-5-5-5--|--9-9-9-9-9-9-9-9-9-9-9-9-9--|
A|--3-3-3-3-3-3-3-3-3-3-3-3-3--|--7-7-7-7-7-7-7-7-7-7-7-7-7--|
E|-----------------------------|-----------------------------|

e|-----------------------------------|------------------------------------|
B|----8-----6-----6---8-----6-----6--|----5-------------------------------|
G|--5-----5-----5---5-----5-----5----|--7---7-5---5---5-7b-5---5----------|
D|-----------------------------------|----------7---7--------7------------|
A|-----------------------------------|------------------------------------|
E|-----------------------------------|------------------------------------|

e|-----------------------------------|
B|----5------------------------------|
G|-7-----7--5-----5-----5------------|
D|-------------7-----7-----7---5-----|
A|--------------------------------7--|
E|-----------------------------------|

[Verse 2]
    C             E                A             F
e|--3-3-3--3-3-3--7-7-7--7-7-7--|--5-5-5--5-5-5--1-1-1--1-1-1--|
B|--5-5-5--5-5-5--9-9-9--9-9-9--|--5-5-5--5-5-5--1-1-1--1-1-1--|
G|--5-5-5--5-5-5--9-9-9--9-9-9--|--6-6-6--6-6-6--2-2-2--2-2-2--|
D|--5-5-5--5-5-5--9-9-9--9-9-9--|--7-7-7--7-7-7--3-3-3--3-3-3--|
A|--3-3-3--3-3-3--7-7-7--7-7-7--|--7-7-7--7-7-7--3-3-3--3-3-3--|
E|------------------------------|--5-5-5--5-5-5--1-1-1--1-1-1--|
    * *    * *    * *    * *       * *    * *    * *    * *
    A             F                C             G 
e|--5-5-5--5-5-5--1-1-1--1-1-1--|--3-3-3--3-3-3--3-3-3-3-3-3--|
B|--5-5-5--5-5-5--1-1-1--1-1-1--|--5-5-5--5-5-5--3-3-3-3-3-3--|
G|--6-6-6--6-6-6--2-2-2--2-2-2--|--5-5-5--5-5-5--4-4-4-4-4-4--|
D|--7-7-7--7-7-7--3-3-3--3-3-3--|--5-5-5--5-5-5--5-5-5-5-5-5--|
A|--7-7-7--7-7-7--3-3-3--3-3-3--|--3-3-3--3-3-3--5-5-5-5-5-5--|
E|--5-5-5--5-5-5--1-1-1--1-1-1--|----------------3-3-3-3-3-3--|
    * *    * *    * *    * *       * *    * *    * * *
    C                             E
e|-----------------------------|-----------------------------|
B|-----------------------------|-----------------------------|
G|--5-5-5-5-5-5-5-5-5-5-5-5-5--|--9-9-9-9-9-9-9-9-9-9-9-9-9--|
D|--5-5-5-5-5-5-5-5-5-5-5-5-5--|--9-9-9-9-9-9-9-9-9-9-9-9-9--|
A|--3-3-3-3-3-3-3-3-3-3-3-3-3--|--7-7-7-7-7-7-7-7-7-7-7-7-7--|
E|-----------------------------|-----------------------------|

e|-----------------------------------|------------------------------------|
B|----8-----6-----6---8-----6-----6--|----5-------------------------------|
G|--5-----5-----5---5-----5-----5----|--7---7-5---5---5-7b-5---5----------|
D|-----------------------------------|----------7---7--------7------------|
A|-----------------------------------|------------------------------------|
E|-----------------------------------|------------------------------------|

e|-----------------------------------|
B|----5------------------------------|
G|-7-----7--5-----5-----5------------|
D|-------------7-----7-----7p-5------|
A|------------------------------7p5--|
E|-----------------------------------|

[Chorus 1]
    A                   C
e|--5-5-5-5-5-5-5-5--|-------------------|   \
B|--5-5-5-5-5-5-5-5--|--X-X-X-X-X-X-X-X--|    \
G|--X-X-X-X-X-X-X-X--|--5-5-5-5-5-5-5-5--|     \
D|--7-7-7-7-7-7-7-7--|--5-5-5-5-5-5-5-5--|      \
A|--7-7-7-7-7-7-7-7--|--3-3-3-3-3-3-3-3--|       \
E|--5-5-5-5-5-5-5-5--|-------------------|        |
    F                   E       G                 | X 2
e|--1-1-1-1-1-1-1-1--|--0-0-0-0-3-3-3-3--|        |
B|--1-1-1-1-1-1-1-1--|--0-0-0-0-3-3-3-3--|       /
G|--X-X-X-X-X-X-X-X--|--X-X-X-X-X-X-X-X--|      /
D|--3-3-3-3-3-3-3-3--|--2-2-2-2-5-5-5-5--|     /
A|--3-3-3-3-3-3-3-3--|--2-2-2-2-5-5-5-5--|    /
E|--1-1-1-1-1-1-1-1--|--0-0-0-0-3-3-3-3--|   /

[Verse 3]    (let first chords then notes ring out)
    C    E    A    F  G     C                   B
e|------------5----1--3--|-----------------------------------------|
B|------------5----1--3--|--------5-------------------5------------|
G|--5----9----6----2--4--|------5---5---------------5---5----------|
D|--5----9----7----3--5--|----5-------5---5-------5-------5---5----|
A|--3----7----7----3--5--|--3-----------3----3--2-----------2---2--|
E|------------5----1--3--|-----------------------------------------|
    A                     F        G
e|---------------------|--------------------|
B|---------------------|--------------------|
G|--------6------------|--------3--------4--|
D|------7---7----------|------3--------5----|
A|----7-------7---7----|----3--------5------|
E|--5-----------5---5--|--1--------3--------|

[Chorus 2]
    A                   C
e|--5-5-5-5-5-5-5-5--|-------------------|   \
B|--5-5-5-5-5-5-5-5--|--X-X-X-X-X-X-X-X--|    \
G|--X-X-X-X-X-X-X-X--|--5-5-5-5-5-5-5-5--|     \
D|--7-7-7-7-7-7-7-7--|--5-5-5-5-5-5-5-5--|      \
A|--7-7-7-7-7-7-7-7--|--3-3-3-3-3-3-3-3--|       \
E|--5-5-5-5-5-5-5-5--|-------------------|        |
    F                   E       G                 | X 2
e|--1-1-1-1-1-1-1-1--|--0-0-0-0-3-3-3-3--|        |
B|--1-1-1-1-1-1-1-1--|--0-0-0-0-3-3-3-3--|       /
G|--X-X-X-X-X-X-X-X--|--X-X-X-X-X-X-X-X--|      /
D|--3-3-3-3-3-3-3-3--|--2-2-2-2-5-5-5-5--|     /
A|--3-3-3-3-3-3-3-3--|--2-2-2-2-5-5-5-5--|    /
E|--1-1-1-1-1-1-1-1--|--0-0-0-0-3-3-3-3--|   /
    C                   C/B
e|-------------------|-------------------|   \
B|--X-X-X-X-X-X-X-X--|--X-X-X-X-X-X-X-X--|    \
G|--5-5-5-5-5-5-5-5--|--5-5-5-5-5-5-5-5--|     \
D|--5-5-5-5-5-5-5-5--|--5-5-5-5-5-5-5-5--|      \
A|--3-3-3-3-3-3-3-3--|--2-2-2-2-2-2-2-2--|       \
E|-------------------|-------------------|        |
    A                   F       G                 | X 2
e|--5-5-5-5-5-5-5-5--|--1-1-1-1-3-3-3-3--|        |
B|--5-5-5-5-5-5-5-5--|--1-1-1-1-3-3-3-3--|       /
G|--X-X-X-X-X-X-X-X--|--X-X-X-X-X-X-X-X--|      /
D|--7-7-7-7-7-7-7-7--|--3-3-3-3-5-5-5-5--|     /
A|--7-7-7-7-7-7-7-7--|--3-3-3-3-5-5-5-5--|    /
E|--5-5-5-5-5-5-5-5--|--1-1-1-1-3-3-3-3--|   /

Drum Fill (let a C chord ring out)

[Outro]
e|-------------------------|
B|-------------------------|
G|-----0-2p0------2p0------|
D|---2-------2p0------2p0--|  X 3
A|-3-----------------------|
E|-------------------------|

e|-------------------------|
B|-------------------------|
G|--2-----0----------------|
D|--------------2-3-3p2-0--|
A|-------------------------|
E|-------------------------|

e|-------------------------|
B|-------------------------|
G|-----0-2p0------2p0------|
D|---2-------2p0------2p0--|  X 3
A|-3-----------------------|
E|-------------------------|

e|-----------------|---------------------|
B|-----------------|---------------------|
G|-----------------|---------------------|
D|--3-3-3-3-3p2-0--|--3-3-3-3-3p2-0h2----|
A|-----------------|------------------3--|
E|-----------------|---------------------|

Thanks to leg_titties for the last riff of the outro.

************************************

| x   Dead note
| h   Hammer-on
| p   Pull-off
| b   Bend
| /   Slide up
| \   Slide down
| *  Palm mute

************************************

            
            
Suggest correction
Creating personal tab
Creating personal tab
You can edit any tab online and save it as your Personal.

You can edit, replace or remove any tab part or add personal notes – all changes will be seen only by you.

Personal tabs can be accessed anytime from any device, even offline.
Learn more »
Give kudos to tab author, rate the tab!
1 2 3 4 5
comments
print report bad tab
guest
You may want to rate the tab now too:
select rating
Wanna post a correction for this tab? Suggest correction