Oops, an error
Loading. Please wait.

Youre A Very Lovely Woman chords

304 views 3 this week
no commentswrite comment
1 2 3 4 5
3 more votes to show rating
add to favorites
×
Save as Personal and add changes to this tab that will be seen only by you. Learn more ›
×
You can save this tab as Personal to edit and correct it or add notes. All changes will be seen only by you. Learn more »
launch autoscroll
font size
0
reset
transpose
0
reset
display chords
guitar tuner
edit
Autoscroll
slow
fast
+/-
esc
set tempo
stop
Strumming
There is no strumming pattern for this song yet. and get +5 IQ
-------------------------------------------------------------------------------
                You're A Very Lovely Woman - The Merry-Go-Round
-------------------------------------------------------------------------------

Tabbed by: carterkelliott
Tuning: Standard

[Chords]

Fmaj7/#11: 033200
E: 022100
Am: x02210
F: x33211
D: xx0232

-------------------------------------------------------------------------------

INTRO TAB:

e|----0--------0------------0--------0----|
B|-------------0--0------------------0--0-|
G|-------1-----------1/2-------2----------|
D|----------------------------------------|
A|----------2-------------3-------3-------|
E|-0--------------------------------------|

Just a little note, when you slide up to the second fret
on the G string, it's much easier (and it's what the guy
does in the recording) to simply slide the E chord shape
up one fret.

e|------0-------2-------0----1------------|
B|------1-------3-------1----1------------|
G|-0h2--2--0h2--2--0h2--2--0h2------------|
D|---------------------------3------------|
A|---0-------0-------0-------3------------|
E|----------------------------------------|

-------------------------------------------------------------------------------

[Intro]

E    Fmaj7/#11    Am  D  Am  F


[Verse 1]

E                    E                  Fmaj7/#11
 A girl who loves me, is thinking of me, my home and friends
    
                      Am    D      Am     F
 But you're a lovely woman (A very lovely woman)
    
         Am    D      Am     F
 Lovely woman (A very lovely woman)



Now, all that's left is the bridge:

        Bb                    E
    And oh even though you're lovely
    
         Am               G           F
    Your world is ugly so come back no more.
    
        Bb                   E
    For all that you have to offer
    
       Am            G         F
    Is not enough to ruin my life for


And the song ends on an Am.

Now, all you have to do is repeat these for the respective parts of the song! Hope this helped!

            
            
Suggest correction
Creating personal tab
Creating personal tab
You can edit any tab online and save it as your Personal.

You can edit, replace or remove any tab part or add personal notes – all changes will be seen only by you.

Personal tabs can be accessed anytime from any device, even offline.
Learn more »
Give kudos to tab author, rate the tab!
1 2 3 4 5
comments
print report bad tab
guest
You may want to rate the tab now too:
select rating
Wanna post a correction for this tab? Suggest correction