Oops, an error
Loading. Please wait.

Last Of The Lookers bass

version 2
version 2

Whole song

294 views 6 this week
no commentswrite comment
1 2 3 4 5
3 more votes to show rating
add to favorites
×
Save as Personal and add changes to this tab that will be seen only by you. Learn more ›
×
You can save this tab as Personal to edit and correct it or add notes. All changes will be seen only by you. Learn more »
launch autoscroll
font size
0
reset
guitar tuner
edit
Autoscroll
slow
fast
+/-
esc
set tempo
stop
Author
This is a very simple song to play on the bass, and this version is not only more corect 
the other here at Ultimate-Guitar, it's also much more fun to play!

Intro (and main riff through most of the song with smal variations sometimes which you 
hear if you listen at the song)

G|----------------------|
D|-------7-7--------7-7-|
A|----------------------|
E|-3-4-5--5--3-4-5-5-5--| x2

G|-------7-7--------7-7-|---------------------------|
D|----------------------|-------7-7------7-7--------|
A|-3-4-5--5--3-4-5-5-5--|---------------------------|
E|----------------------|-3-4-5--5--3-4-5-5-5-55-55-|

G|---9-9--------|
D|--------------|
A|-7--7--7-76-5-|
E|--------------|

After about 1:15 and 2:35 you will hear the following:

G|------------------------------------|
D|------------7-7-----------------7-7-|
A|------------------------------------|
E|-88888888-5--5--55-5-88888888-5--5--|

Otherwise everything is as the main riff.

            
            
Suggest correction
Creating personal tab
Creating personal tab
You can edit any tab online and save it as your Personal.

You can edit, replace or remove any tab part or add personal notes – all changes will be seen only by you.

Personal tabs can be accessed anytime from any device, even offline.
Learn more »
Give kudos to tab author, rate the tab!
1 2 3 4 5
comments
print report bad tab
guest
You may want to rate the tab now too:
select rating
Wanna post a correction for this tab? Suggest correction