Oops, an error
Loading. Please wait.

Too Many Hannahs tab

399 views 1 this week
no commentswrite comment
1 2 3 4 5
3 more votes to show rating
add to favorites
×
Save as Personal and add changes to this tab that will be seen only by you. Learn more ›
×
You can save this tab as Personal to edit and correct it or add notes. All changes will be seen only by you. Learn more »
launch autoscroll
font size
0
reset
how to read this tab
guitar tuner
edit
Autoscroll
slow
fast
+/-
esc
set tempo
stop
Author
Difficulty
-------------------------------------------------------------------------------
                             Too Many Hannahs - The Metros
-------------------------------------------------------------------------------
Tabbed by: Milchbubi99 and brunostroker
Email: milchbubi99@yahoo.de

Tuning: EADGBe

Intro:
e|------------7------------------------7-----------------------------------|
B|---------5--------5---------------5--------5-----------------------------|
G|------6--------------6---------6--------------6--------------------------|
D|---7------------------------7--------------------------------------------|
A|-------------------------------------------------------------------------|
E|-------------------------------------------------------------------------|

e|------------7------------------------7-----------------------------------|
B|---------6-------6----------------6-------6------------------------------|
G|------6-------------6----------6-------------6---------------------------|
D|---7------------------------7--------------------------------------------|
A|-------------------------------------------------------------------------|
E|-------------------------------------------------------------------------|
        2x 

on 2nd time:

e|------------7-----------------7-----------------------------------------|
B|---------6-------6------------6-----------------------------------------|
G|------6-------------6---------6-----------------------------------------|
D|---7--------------------------7-----------------------------------------|
A|------------------------------------------------------------------------|
E|------------------------------------------------------------------------|


Verse 1

A   C#m   Cm   Bm  Dm
I live on a diet, of half-price pub lunch
And Tesco's trifles, I think it might be all too much
I sleep all day and I dance all night
But when you come down, everything's gonna be all right

A   C#m   Cm   Bm  Dm
Too many Hannahs (Too many Hannahs)
A   C#m   Cm   Bm  Dm
Too many Hannahs (Too many Hannahs)

A          D  A          D
Closing time, closing time
E                       E D# D
About the things you do
The way I feel about, I just can't tell it to you


A   C#m   Cm   Bm  Dm
And who goes out, at 3 in the morning?
I'm getting tired, this lifestyles getting oh so boring
Waterloo Bridge, in the middle of the night
But when we come down, everything's gonna be all right

Chorus 

A   C#m   Cm   Bm  Dm
Too many Hannahs (Too many Hannahs)
A   C#m   Cm   Bm  Dm
Too many Hannahs (Too many Hannahs)


A          D  A          D
Closing time, closing time
E                       E D# D
About the things you do
The way I feel about, I just can't tell it to you

A   D (x3)
E D# D


A          
She got slashed so quickly
D
Her feet didn't touch the floor
A
And the cunts in all the pubs
D
With all the racists ???
A                                      D
The days where we care less about the things that really matter
E                                   D#
But slow down kids, don't take the piss
D
His wrist was almost shattered

A          D  A          D
Closing time, closing time
E                      
About the things you do 

| /  slide up
| \  slide down
| h  hammer-on
| p  pull-off
| ~  vibrato
| +  harmonic
| x  Mute note
===============================================================================

            
            
Suggest correction
Creating personal tab
Creating personal tab
You can edit any tab online and save it as your Personal.

You can edit, replace or remove any tab part or add personal notes – all changes will be seen only by you.

Personal tabs can be accessed anytime from any device, even offline.
Learn more »
Give kudos to tab author, rate the tab!
1 2 3 4 5
comments
print report bad tab
guest
You may want to rate the tab now too:
select rating
Wanna post a correction for this tab? Suggest correction