Oops, an error
Loading. Please wait.

Lanterns tab

1,875 views 9 this week
1 commentread comment
1 2 3 4 5
2 more votes to show rating
add to favorites
×
Save as Personal and add changes to this tab that will be seen only by you. Learn more ›
×
You can save this tab as Personal to edit and correct it or add notes. All changes will be seen only by you. Learn more »
launch autoscroll
font size
0
reset
how to read this tab
guitar tuner
edit
Autoscroll
slow
fast
+/-
esc
set tempo
stop
Author
This is for the live version played in Japan.

Intro:  
e|---------------------------------------------------------------------------|
B|---------------------------------------------------------------------------|
G|---------------------------------------------------------7-7-6-4-----------|
D|------------4p2--------------------------7---------------------------------|
A|-----5\2--------5p4-------------5-5-5\2--7-7/9\7\5-------9---9-5-5\2-------|
E|-3-3------5----------7-7--7-7---3-3------5----------7------7---3-----------|

  
e|---------------------------------------------------------------------------|
B|---------------------------------------------------------------------------|
G|---------------------------------------------------------------------------|
D|-7----------9-9--99999999--------------------------------------------------|
A|-7-7/9\7\5--9-9--99999999--------------------------------------------------|
E|-5----------7-7--77777777--------------------------------------------------|



Verse:  "Don't go out..."
e|---------------------------------------------------------------------------|
B|---------------------------------------------------------------------------|
G|---------------------------------------------------------------------------|
D|-5-5--xxxx--7-7--xxxx--9-9--xxxx--9-9--------------------------------------|
A|-5-5--xxxx--7-7--xxxx--9-9--xxxx--9-9--------------------------------------|
E|-3-3--xxxx--5-5--xxxx--7-7--xxxx--7-7--------------------------------------|

All the verses are pretty much this and variations of the intro...just listen to 
the song.
For best sound just finger pick.


            
            
Suggest correction
Creating personal tab
Creating personal tab
You can edit any tab online and save it as your Personal.

You can edit, replace or remove any tab part or add personal notes – all changes will be seen only by you.

Personal tabs can be accessed anytime from any device, even offline.
Learn more »
Give kudos to tab author, rate the tab!
1 2 3 4 5
comments
print report bad tab
1 comment total.
0 reply
oclictis1 328 Dec 22, 2014 03:38 PM

I don't know if it's accurate or true to the song but here's an easier way to play it

e|--------------------------------------------------------------------------|
B|--------------------------------------------------------3-3-2-0-----------|
G|--------------------------------------------------------------------------|
D|-----0------4/2--0-------------0-0-0------2/4\2\0-------4---4-0-0---------|
A|-------2--0---------2-2--2-2---------2--0----------2------2-------2-------|
E|-3-3---------------------------3-3----------------------------3-----------|

e|--------------------------------------------------------------------------|
B|--------------------------------------------------------------------------|
G|--------------------------------------------------------------------------|
D|-7-------0--9-9--99999999-------------------------------------------------|
A|-7-7/9\7----9-9--99999999-------------------------------------------------|
E|-5----------7-7--77777777-------------------------------------------------|

An alternative to the "Don't go out..." part (if you're lazy or if you suck and your fingers can't reach far enough across the frets) is
e|---------------------------------------------------------------------------|
B|---------------------------------------------------------------------------|
G|-0-0--------2-2--------4-4--------4-4--------------------------------------|
D|-0-0--xxxx--2-2--xxxx--4-4--xxxx--4-4--------------------------------------|
A|------xxxx--0-0--xxxx--2-2--xxxx--2-2--------------------------------------|
E|-3-3--xxxx-------xxxx-------xxxx-------------------------------------------|

guest
You may want to rate the tab now too:
select rating
Wanna post a correction for this tab? Suggest correction