Oops, an error
Loading. Please wait.

The Impression That I Get bass

version 1
version 1

Whole song

Interactive

25,565 views 42 this week
2 commentsread comments
1 2 3 4 5
x 5
add to favorites
×
Save as Personal and add changes to this tab that will be seen only by you. Learn more ›
×
You can save this tab as Personal to edit and correct it or add notes. All changes will be seen only by you. Learn more »
launch autoscroll
font size
0
reset
guitar tuner
backing track
0:00
0:00
edit
Autoscroll
slow
fast
+/-
esc
set tempo
stop
Author
Unregistered
THE IMPRESSOIN THAT I GET (Bassline)
As recorded by The Mighty Mighty Bosstones

Words and Music by Dicky Barret and Joe Gittleman
Arranged by Dicky Barret and Joe Gittleman
Transcribed by Stephen Brown

Gtr I (E A D G) - 'Untitled'

  [Intro]
G|----|-------|-------|-------|-------------|----------|
D|----|-------|-------|-------|-------------|----------|
A|----|-------|-------|-------|-------------|----------|
E|----|-------|-------|-------|-----------0-|-(0)------|

G|------------|------------|---------------|
D|------------|------------|---------------|
A|------------|------------|----------12\--|
E|-(0)--------|-(0)--------|-(0)-----------|

G||--------------------|--------------------|
D||o-----6-9-(9)-------|-----------6-7-6----|
A||o---7-----------6-9-|-(9)---6-7-------0--|
E||--------------7-----|-----9--------------|

                         1.                    2.
G|---------------------|--------------------||-------------------||
D|-------6-9-(9)-------|-----------6-7-6-7-o||-----------6-7-6-7-||
A|-(0)-7-----------6-9-|-(9)---6-7---------o||-(9)---6-7---------||
E|---------------7-----|-----9--------------||-----9-------------||

  [Verse]
G||--------------------|-------------------|
D||o-----6-9-(9)-------|-----------6-7-6---|
A||o---7-----------6-9-|-(9)---6-7-------0-|
E||--------------7-----|-----9-------------|

                         1.
G|---------------------|--------------------||
D|-------6-9-(9)-------|-----------6-7-6-7-o||
A|-(0)-7-----------6-9-|-(9)---6-7---------o||
E|---------------7-----|-----9--------------||

                      [Pre-Chorus]
G|-------------------||-----------------|
D|-----------6-7-6\--||-----------------|
A|-(9)---6-7---------||-----------------|
E|-----9-------------||-2--2-2-(2)-2-5--|

G|----------------------|-----------------|
D|-------5-7--(7)-5-----|-----------------|
A|------------------7\--|-----------------|
E|-(5)-5----------------|-2--2-2-(2)-2-5--|

                       [Chorus]
G|--------------------||----------------|-----------------|
D|--------------------||----------------|-----------------|
A|--------------------||-7--7-7-7-7-7-7-|-7-7-7-7-7-7-7-7-|
E|-(5)-5-5--(5)-5-5-5-||----------------|-----------------|

G|----------------|-----------------|----------------|
D|----------------|-----------------|----------------|
A|----------------|-----------------|----------------|
E|-7--7-7-7-7-7-7-|-7-7-7-7-7-7-7-7-|-4--4-4-4-4-4-4-|

G|-----------------|----------------|-----------------|
D|-----------------|----------------|-----------------|
A|-----------------|----------------|-----------------|
E|-4-4-4-4-4-4-4-4-|-5--5-5-5-5-5-5-|-5-5-5-5-5-5-5-7-|

G|----------------|-----------------|----------------|
D|----------------|-----------------|----------------|
A|-7--7-7-7-7-7-7-|-7-7-7-7-7-7-7-7-|----------------|
E|----------------|-----------------|-7--7-7-7-7-7-7-|

G|------------------------|
D|------------------------|
A|------------------------|
E|-7--7--7--7--7--7--7--7-|

G|----------------|-----------------|----------------|
D|----------------|-----------------|----------------|
A|----------------|-----------------|----------------|
E|-4--4-4-4-4-4-4-|-4-4-4-4-4-4-4-4-|-5--5-5-5-5-5-5-|

   1.
G|-----------------|-------------------|-------------------|
D|---------6-7-6-7-|-----6-9-(9)-------|-----------6-7-6---|
A|-----------------|---7-----------6-9-|-(9)---6-7-------0-|
E|-5-5-5-5---------|-------------7-----|-----9-------------|

G|---------------------|---------------------||
D|-------6-9-(9)-------|-----------6-7-6-7--o||
A|-(0)-7-----------6-9-|-(9)---6-7----------o||
E|---------------7-----|-----9---------------||

                    [Interlude]
   2.
G|-----------------||---------------|---------------------|
D|-----------------||---------------|--------5h7-7-7-5----|
A|-----------------||---------------|------------------7\-|
E|-5-5-5-5-5-5-5-0-||-2--2-2-2-2-5--|-(5)--5--------------|

G|---------------|-----------------|----------------|
D|---------------|------7--7-7-7\--|----------------|
A|---------------|-----------------|----------------|
E|-2--2-2-2-2-5--|-(5)-------------|-2---2-2-2-2-5--|

                   [Verse]
G|----------------||------------|------------|
D|---7--7-7-5-----||------------|------------|
A|------------7---||------------|------------|
E|-5------------0-||-(0)--------|-(0)--------|

G|------------|------------|-------------|
D|------------|------------|-------------|
A|------------|------------|-------------|
E|-(0)--------|-(0)--------|-(0)---------|

G|------------|-------------|-----------||
D|------------|-------------|-----------||
A|------------|-------------|-----------||
E|-(0)--------|-(0)---------|-----------||

                    [Interlude]
G|-----------------||--------------------|-------------------|
D|---------6-7-6-7-||o-----6-9-(9)-------|-----------6-7-6---|
A|-----------------||o---7-----------6-9-|-(9)---6-7-------0-|
E|-5-5-5-5---------||--------------7-----|-----9-------------|

                                             4x
G|---------------------|---------------------||
D|-------6-9-(9)-------|-----------6-7-6-7--o||
A|-(0)-7-----------6-9-|-(9)---6-7----------o||
E|---------------7-----|-----9---------------||

 [Outro]
G|------|
D|------|
A|------|
E|------|

************************************

| (n)  Ghost note
| \    Slide down
| h    Hammer-on

************************************

            
            
Suggest correction
Creating personal tab
Creating personal tab
You can edit any tab online and save it as your Personal.

You can edit, replace or remove any tab part or add personal notes – all changes will be seen only by you.

Personal tabs can be accessed anytime from any device, even offline.
Learn more »
comments
print report bad tab
2 comments total.
0 reply
jake_luvs_bex 522 Aug 11, 2003 08:00 PM

official tab, but tabbed by JAKE BROWn not stephen brown, he got in a mood so submitted it

0 reply
grassguru68 10 Sep 05, 2017 06:41 AM

Good job Jake.

guest
Wanna post a correction for this tab? Suggest correction