Oops, an error
Loading. Please wait.

Stealing Romance solo tab

109 views 3 this week
no commentswrite comment
1 2 3 4 5
3 more votes to show rating
add to favorites
×
Save as Personal and add changes to this tab that will be seen only by you. Learn more ›
×
You can save this tab as Personal to edit and correct it or add notes. All changes will be seen only by you. Learn more »
launch autoscroll
font size
0
reset
how to read this tab
guitar tuner
edit
Autoscroll
slow
fast
+/-
esc
set tempo
stop
About this tab version
This is the solo played by Kenneth Pattengale on the studio version of Stealing Romance starting at 2:16. It is a very fluid and organic timing used to play this solo, so just listen to the track a couple times and you'll get it in no time. Please enjoy. Was this info helpful? Yes No
[Solo]
e|-------------------------------------------------------------------------------------------|
B|-------------------------------------------------------------------------------------------|
G|-----6b7--6--5--4--0-----------5-----4--5--2--4--0-----0--2--2--4--4--0-----0--------0-----|
D|--0-------------------0--1--2-----2-----------------0--------------------0-----4--2-----0--|
A|-------------------------------------------------------------------------------------------|
E|-------------------------------------------------------------------------------------------|

e|--------------------------0-----|
B|--------------------1--------1--|
G|-----------------0-----0--------|
D|-----------1--2-----------------|
A|--1--2--3-----------------------|
E|--------------------------------|

e|-----------------------------------------------|
B|-----3--------------------------4--5--3--1--1--|
G|--0--------0--2--4-----------2-----0--0--0--0--|
D|--------0-----------2--3--4--------2--2--2--1--|
A|-----------------------------------------------|
E|-----------------------------------------------|

e|--7--------------------------------2-----0--|
B|-----8-----------------------3--5--------3--|
G|--------7--5--4-----------3--------------4--|
D|-----------------5-----4-----------------0--|
A|--------------------5-----------------------|
E|--------------------------------------------|


************************************

| b  Bend

************************************

            
            
Suggest correction
Creating personal tab
Creating personal tab
You can edit any tab online and save it as your Personal.

You can edit, replace or remove any tab part or add personal notes – all changes will be seen only by you.

Personal tabs can be accessed anytime from any device, even offline.
Learn more »
Give kudos to tab author, rate the tab!
1 2 3 4 5
comments
print report bad tab
guest
You may want to rate the tab now too:
select rating
Wanna post a correction for this tab? Suggest correction