Oops, an error
Loading. Please wait.

Can You Dig It bass

version 1
version 1

Whole song

Interactive

5,231 views 6 this week
1 commentread comment
1 2 3 4 5
x 3
add to favorites
×
Save as Personal and add changes to this tab that will be seen only by you. Learn more ›
×
You can save this tab as Personal to edit and correct it or add notes. All changes will be seen only by you. Learn more »
launch autoscroll
font size
0
reset
guitar tuner
edit
Autoscroll
slow
fast
+/-
esc
set tempo
stop
Author
Difficulty
-------------------------------------------------------------------------------
			     CAN YOU DIG IT - The Mock Turtles
-------------------------------------------------------------------------------

Tabbed By : Mick "Legohead" Morley
e-mail: mick@legoheads.com

Tuning: Standard

Following a few "guitar only" intro bars the bass starts...

G|-------------------------------------------| This run up is
D|--------------------------111-111----------| played just once
A|-----------------22-044-0------------------| before moving to
E|-00-022-044-055-0--------------------------| intro riff below


G|-------------------------------------------| This riff may be played
D|-------------------------------------------| either twice or four times
A|-----------242-----------------------------| depending on the version
E|-024542-245--------------------------------| you are playing


Once the verse starts you play right through to the end of the chorus...

G|-------------------------------------------| This riff is the same basic
D|-21----------------------------------------| pattern for all verses
A|---4242------------------------------------| and choruses but not for
E|-------245242------------------------------| instrumental later on


At the post chorus bridge part you play...

G|-------------------------------------------| This bit is repeated
D|-------------------------------------------| several times depending
A|-44-2-0-0000-------------------------------| on the verse/chorus it
E|-------------------------------------------| follows


And then to finsh the bridge part...

G|-------------------------------------------| The B is on the word "sad"
D|-------------------------------------------| with the A coming on the 
A|-2222-2222-0-0-0-0-------------------------| words "someone turn the
E|-------------------------------------------| light on"

The instrumental verse starts with the verse/chorus riff played twice...

G|-------------------------------------------|
D|-21----------21----------------------------|
A|---4242--------4242------------------------|
E|-------24542-------24542-------------------|


At which point the bass hits either D or E on the A string and slides to 12th 
fret and back repeatedly. Best to experiment with what sounds best for you.

* Obviuosly, during the main riffs the A played on the 5th fret of the E string 
may be played open on the A string... I find it better to fret it but it's 
really down to your style and preference.

===============================================================================

            
            
Suggest correction
Creating personal tab
Creating personal tab
You can edit any tab online and save it as your Personal.

You can edit, replace or remove any tab part or add personal notes – all changes will be seen only by you.

Personal tabs can be accessed anytime from any device, even offline.
Learn more »
Give kudos to tab author, rate the tab!
1 2 3 4 5
comments
print report bad tab
1 comment total.
0 reply
Tylerhalton 11 Nov 12, 2017 10:52 AM

cheers for making this, sounds good

guest
You may want to rate the tab now too:
select rating
Wanna post a correction for this tab? Suggest correction