Oops, an error
Loading. Please wait.

Nothing Came Out tab

19,314 views 6 this week
11 commentsread comments
1 2 3 4 5
x 6
add to favorites
×
Save as Personal and add changes to this tab that will be seen only by you. Learn more ›
×
You can save this tab as Personal to edit and correct it or add notes. All changes will be seen only by you. Learn more »
launch autoscroll
font size
0
reset
how to read this tab
guitar tuner
edit
Autoscroll
slow
fast
+/-
esc
set tempo
stop
-------------------------------------------------------------------------------
     NOTHING CAME OUT - the Moldy Peaches
-------------------------------------------------------------------------------

By Martin Smith - bigearedbean@hotmail.com

My first tab, not perfect but it sounds reasonable played along to the music, there's not a
better version to offer so you're going to have to make do for now :D
bigearedbean@hotmail.com

[Definitions]

Riff

e:|------------------------
B:|------------------------
G:|----------------------0-
D:|----------0----0h2------
A:|---0h2------------------
E:|------------------------

Each chord is played in the following manner, (timing very approximate):

C

e:|-----0---------0------
B:|-----1---------1------
G:|-----0---------0------
D:|-----2---------2------
A:|-3---3---3-33--3------
E:|----------------------

Am7

e:|-------3----------------
B:|-------1----------------
G:|-------2----------------
D:|-------2----------------
A:|-0-0---0----------------
E:|------------------------
		_
F		G

e:|-1---1----1-|-3---3-----
B:|-1---1----1-|-3---3-----
G:|-2---2----2-|-4---4-----
D:|-3---3----3-|-5---5-----
A:|-3---3----3-|-5---5-----
E:|-1---1----1-|-3---3-----

	G   G7	Am	Fm (Fm7)(I can't make up my mind on the right chord here)

e:|-----3----1---0-------1-----
B:|-----3----0---1-------1-(4)-
G:|-----0----0---2-------1-----
D:|-----0----0---2-------3-----
A:|-----2----2---0-------3-----
E:|-----3----3-----------1-----

[Intro]

Riff1; C----Am7----F--G--Am---- [x2]

[Verse] (* indicates picking bass string, \ indicates strum (^ as upstroke, to taste),
according to patterns above)

Riff1
C* \	     ** \    Am7 *   *    \
   Just because I don't say anything, 
		_
	F	G   N.C.    Am
Dosn't mean         I don't like you. 

Riff1
C*	\        ** \     Am7*  *     \
    I open my mouth, and I try and I try. 
	    _
F\   \   ^  G\    \    Am
     but no words come out. 

[Verse] [same sequence & timing]

Without 40 ounces of social skills, 
I'm just an ass in the crack of humanity. 
I'm just a huge manity -
a huge manity. 				* I really don't know what a 'manity' is, I've looked but to no avail... if you know please do 
[Bridge] [Play verse pattern]		  E - Mail me. Perhaps it's 'Manikin'?

[Chorus] [Use the last Am to play you into this]
	 [Strum as you feel it goes]
					   _
Am			    C (?)   G (not G)
And besides you're probably holding hands 
          Fm (Fm7?)			    C
with some skinny, pretty girl that likes to 
	   G
talk about bands, and
Am		       C          G
all I wanna do is ride bikes with you,
    Fm (Fm7?)          C           G7
and stay up late, and watch cartoo-oons. 

[Instrumental] [Play verse pattern and whistle tunefully down a piccalo]

...Duck tails, shirt tails, tail spin, sailor man, GI joe, robotech,.. 

[Chorus Pattern]

I just wanna watch cartoons with you. 
Jossie and the Pussy Cats and Scooby Doo, 
I want you to watch cartoons with me:
He-man, Voltron and Hong Kong Fooey 

[Verse]

I tried to ask you to your face 
but no words came out. 
Put on my hood and walked away, 
that dosnt mean I don't like you

[Chorus]

And besides you're probably holding hands 
with some skinny, pretty girl that likes to 
talk about bands, and
all I wanna do is ride bikes with you. 
and stay up late and maybe spoon. 

[Verse]

Just becase I don't say anything 
dosnt mean I don't like you. 
..no.. 
I opened my mouth and I tried and I tried. 

[Chorus]

And besides, you're probably holding hands 
with some skinny, pretty girl that likes to 
talk about bands, and
all I wanna do is ride bikes with you. 
and stay up late and watch cartoons. 

I'm just your average undercats host. 


Well there you are, people, enjoy, and buy the album!
Please help me improve the tab, e-mail me straight away at the slightest imperfection

bigearedbean@hotmail.com

            
            
Suggest correction
Creating personal tab
Creating personal tab
You can edit any tab online and save it as your Personal.

You can edit, replace or remove any tab part or add personal notes – all changes will be seen only by you.

Personal tabs can be accessed anytime from any device, even offline.
Learn more »
comments
print report bad tab
11 comments total. Showing first comments.
+1 reply
guitarmee 10 Dec 28, 2005 08:23 AM

what about the solo?!

0 reply
omgelliot 155 May 26, 2006 08:35 AM

i defo hear an Em in there.

0 reply
Gnu 10 Aug 14, 2006 09:12 AM

how about this?

C

e:|-----0---------0------
B:|-----1---------1------
G:|-----0---------0------
D:|--2--2----2-2--2------
A:|-3---3---3-3---3------
E:|----------------------

guest
Wanna post a correction for this tab? Suggest correction