Oops, an error
Loading. Please wait.

Christmas Is My Time Of Year bass

19 views 1 this week
no commentswrite comment
1 2 3 4 5
3 more votes to show rating
add to favorites
×
Save as Personal and add changes to this tab that will be seen only by you. Learn more ›
×
You can save this tab as Personal to edit and correct it or add notes. All changes will be seen only by you. Learn more »
launch autoscroll
font size
0
reset
guitar tuner
edit
Autoscroll
slow
fast
+/-
esc
set tempo
stop
Author
Difficulty
Tabbed by: 6METAL6BASSIST6
E-mail: petergriffinav@gmail.com

Tuning: EADG

0:08

G|------------------------------------------------------------------------------------------------|
D|------------------------------------------------------------------------------------------------|
A|6-----6-----6-----6-----6-----6-----6-----6-----6-----6-----6-----6-----6-----6-----6-----6-----|
E|------------------------------------------------------------------------------------------------|

G|------------------------------------------------------------------------------------------------|
D|4-----4-----------------6-----6-----6-----------------------------------------------------------|
A|------------4-----4-----------------------3-----6-----6-----6-----6-----6-----6-----6-----------|
E|------------------------------------------------------------------------------------------6-----|

0:23

G|------------------------------------------------------------------------------------------------|
D|------------------------------------------------6-----6-----6-----6-----------------------------|
A|6-----6-----6-----6-----6-----6-----6-----6---------------------------5/6-----6-----8-----8-----|
E|------------------------------------------------------------------------------------------------|

G|------------------------------------------------------------------------------------------------|
D|5-----5-----6-----6-----8-----8-----8-----------------------------------------------------------|
A|------------------------------------------------6-----6-----6-----6-----6-----6-----6-----8-----|
E|------------------------------------------6-----------------------------------------------------|

0:37

G|------------------------------------------------------------------------8-----------------------|
D|6-----------------------8-----5-----------5-----------10----8-----10----------10----8-----------|
A|------8-----6-----8-----------------8-----------6-----------------------------------------6-----|
E|------------------------------------------------------------------------------------------------|

G|------------------------------------------------------------------------------------------------|
D|6---------------------5-8-----5-----------5---/-9-----9-----9-----9-----4-----4-----4-----------|
A|------8-----6-----8-----------------8-----------------------------------------------------4-----|
E|------------------------------------------------------------------------------------------------|

G|------------------------------------------------------------------------------------------------|
D|------------------------------------------------13----13----13----13----13----13----13----------|
A|6-----6-----6-----6-----6-----6---8/10----------------------------------------------------13\---|
E|------------------------------------------------------------------------------------------------|

0:59

G|------------------------------------------------------------------------------------------------|
D|----------8-----------------------8-----------------------8-----------------------8-------------|
A|6-----------------------6-----------------------6-----------------------6-----------------6-----|
E|------------------6-----------------------6-----------------------6-----------------------------|

G|------------------------------------------------------------------------------------------------|
D|------------4-----4-----6---------------------------------8-----------------------8-------------|
A|4-----4-----------------------------4-----5-----6-----------------------6-----------------------|
E|------------------------------------------------------------------6-----------------------6-----|

1:15

G|------------------------------------------------------------------------------------------------|
D|------------------------5-----------------5-----6-----------5-----------------------------------|
A|6-----------8-----------------------5-----------------------------8-----6-----------8-----------|
E|------------------------------------------------------------------------------------------------|

G|------------------------------------------------------------------------------------------------|
D|5-----------6-----------8---------8-------8---/-13----13--------13\---------------------------5-|
A|------------------------------------------------------------------------6-----------------8-----|
E|------------------------------------------------------------------------------------------------|

1:30

G|------------------------------------------------------------------------8-----10----8-----------|
D|6---------------------5-8-----5-----------5-----------10----8-----10----------------------------|
A|------8-----6-----8-----------------8-----------6-----------------------------------------6-----|
E|------------------------------------------------------------------------------------------------|

G|------------------------------------------------------------------------------------------------|
D|6---------------------5-8-----5-----------5---/-9-----9-----9-----9-----4-----------4-----4---/-|
A|------8-----6-----8-----------------8-----------------------------------------------------------|
E|------------------------------------------------------------------------------------------------|

G|------------------------------------------------|
D|8---8-8-----8-----8-----8-----8-----8-----8---/-|
A|------------------------------------------------|
E|------------------------------------------------|

1:48

G|------------------------------------------------------------------------------------------------|
D|13----13----13----13----13----13----13----------------------------------------------------10--/-|
A|------------------------------------------13\---6-----6-----6-----6-----6-----6---8/10----------|
E|------------------------------------------------------------------------------------------------|

G|------------------------------------------------------------------------------------------------|
D|13----13----13----13----13----13----13----------------------------------------------------5-----|
A|------------------------------------------13\---6-----6-----6-----6-----6-----6-----8-----------|
E|------------------------------------------------------------------------------------------------|

2:03

G|------------------------------------------------8---------8-----------------8-|
D|6---------------------5-8-----5-----------5-----------------------------------|
A|------8-----6-----8-----------------8-----------------------------------------|
E|------------------------------------------------------------------------------|

G|------------------------------------------------------------------------------------------------|
D|------------------------------------------------------------------------------------------------|
A|------------------------------------------------6-----------------------------------------------|
E|------------------------------------------------------------------------------------------------|

G|------------------------------------------------------------------------------------------------|
D|------------------------------------------------------------------------------------------1---/-|
A|------------------------------------------------------------------------------------------------|
E|------------------------------------------------------------------------------------------------|

2:24

G|------------------------------------------------------------------------------------------------|
D|6---------------------5-8-----5-----------5-----9-----9-----9-----9-----4---------4-4-----4-----|
A|------8-----6-----8-----------------8-----------------------------------------------------------|
E|------------------------------------------------------------------------------------------------|

G|------------------------------------------------|
D|6-----------6-----6---6-8-----8-----8-----8---/-|
A|------------------------------------------------|
E|------------------------------------------------|

2:35

G|------------------------------------------------------------------------------------------------|
D|13----13----13----13----13----13----13--10------------------------------------------------10--/-|
A|------------------------------------------13\---6-----6-----6-----6-----6-----6---8/10----------|
E|------------------------------------------------------------------------------------------------|

G|------------------------------------------------------------------------------------------------|
D|13----13----13----13----13----13----13----------------------------------------------------10--/-|
A|------------------------------------------13\---6-----6-----6-----6-----6-----6---8/10----------|
E|------------------------------------------------------------------------------------------------|

2:50

G|------------------------------------------------------------------------------------------------|
D|13----13----13----13----13----13----13----------------------------------------------10----10--/-|
A|------------------------------------------13\---6-----6-----6-----6-----6---8/10----------------|
E|------------------------------------------------------------------------------------------------|

G|------------------------------------------------------------------------------------------------|
D|13----13----13----13----13----13----13----------------------------------------8---/-13----------|
A|------------------------------------------13\---6-----6-----6-----6-----6-----------------13----|
E|------------------------------------------------------------------------------------------------|

G|------------8-----------------------8-----------------------|
D|------------------8-----------------------------------------| fades out here.
A|6-----------------------6-----------------3-----6---------6-|
E|------------------------------------------------------------|

            
            
Suggest correction
Creating personal tab
Creating personal tab
You can edit any tab online and save it as your Personal.

You can edit, replace or remove any tab part or add personal notes – all changes will be seen only by you.

Personal tabs can be accessed anytime from any device, even offline.
Learn more »
Give kudos to tab author, rate the tab!
1 2 3 4 5
comments
print report bad tab
guest
You may want to rate the tab now too:
select rating
Wanna post a correction for this tab? Suggest correction