Oops, an error
Loading. Please wait.

Its Nice To Be With You bass

79 views 1 this week
no commentswrite comment
1 2 3 4 5
3 more votes to show rating
add to favorites
×
Save as Personal and add changes to this tab that will be seen only by you. Learn more ›
×
You can save this tab as Personal to edit and correct it or add notes. All changes will be seen only by you. Learn more »
launch autoscroll
font size
0
reset
guitar tuner
edit
Autoscroll
slow
fast
+/-
esc
set tempo
stop
Author
Difficulty
Tabbed by: 6METAL6BASSIST6
E-mail: petergriffinav@gmail.com

Tuning: EADG

G|----7-------7-------7-------7-------7-------7-------7-------7---|
D|----------------------------------------------------------------| x2
A|5-------------------------------5-------------------------------|
E|----------------------------------------------------------------|

0:11

G|----------------------------------------------------------------|
D|----------------------------------------------------------------|
A|5---5-----------5---5-------5---4---4-----------4---4-------4---|
E|------------5-------------------------------4-------------------|

G|----------------------------------------------------------------|
D|----------------------------------------------------------------|
A|5---5-----------5---5-------5---4---4-----------4---4-------5-/-|
E|------------5-------------------------------4-------------------|

G|----------------------------------------------------------------|
D|----------------------------------------------------------------|
A|7---7---------/-7---7-----------7---7-----------7---7-----/-7---|
E|------------7---------------7---------------7-------------------|

G|----------------------------------------------------------------|
D|----------------7---7-------------------------/-7---7-------7---|
A|------------7---------------7---------------7-------------------|
E|5---5---------------------------5---5---------------------------|

G|----7-------7-------7-------7-------7-------7-------7-------7---|
D|----------------------------------------------------------------|
A|5-------------------------------5-------------------------------|
E|----------------------------------------------------------------|

0:35

G|----------------------------------------------------------------|
D|----------------------------------------------------------------|
A|5---5-----------5---5-------4---4---4-----------4---4-------4---|
E|------------5-------------------------------4-------------------|

G|----------------------------------------------------------------|
D|----------------------------------------------------------------|
A|5---5-----------5---5-------5---4---4-----------4---4-------5-/-|
E|------------5-------------------------------4-------------------|

G|----------------------------------------------------------------|
D|--------------------------------------------------------5-------|
A|7---7-----------7---7-----------7---7-----------7---7-------7---|
E|------------7---------------7---------------7-------------------|

G|----------------------------------------------------------------|
D|--------------/-7---7---------------------------7---7-------7---|
A|------------7---------------7---------------7-------------------|
E|5---5---------------------------5---5---------------------------|

G|----7-------7-------7-------7-------7-------7-------7---7-------|
D|----------------------------------------------------------------|
A|5-------------------------------5---------------------------5-/-|
E|----------------------------------------------------------------|

0:59

G|----------------------------------------------------------------|
D|----------------------------------------------7-7---7-7-----7---|
A|7-------7-------7-------7-----7---------7-----------------------|
E|--------------7-----------------5-------------------------------|

G|----------------------------------------------------------------|
D|----------/-6-----------------------------/-7-------------------| x2
A|4---------------4---4-------4---5---------------5---5-------5---|
E|----------------------------------------------------------------|

1:13

G|----------------------------------------------------------------|
D|----------------7-------7---------------------------------------|
A|--------------------7-------7-----------------7---------7-------|
E|5-------5-----------------------0-----------7-------7-------7---|

G|----------------------------------------------------------------|
D|----------------7-------7---------------------------------------|
A|------------7-------7-------7-------------------7-------7---7---|
E|5-------------------------------------------7-------7-----------|

G|----------------------------------------------------------------|
D|------------------------------------------------7-------7-------|
A|----------------7-------7-------------------7-------7-----------|
E|0-----------7-------7-------7---5-------------------------------|

1:26

G|----------------------------------------------------------------|
D|----------------------------------------------------------------|
A|5---------------5---5-------5---4---4-----------4---4-------4---|
E|------------5-------------------------------4-------------------|

G|----------------------------------------------------------------|
D|----------------------------------------------------------------|
A|5---5-----------5---5-------5---4---4-----------4---4-------5-/-|
E|------------5-------------------------------4-------------------|

G|----------------------------------------------------------------|
D|----------------------------------------------------------------|
A|7---7---------/-7---7-----------7---7---------/-7---7-------7---|
E|------------7---------------7---------------7-------------------|

G|----------------------------------------------------------------|
D|----------------7---7---------------------------7---7-------7---|
A|------------7---------------7---------------7-------------------|
E|5---5---------------------------5---5---------------------------|

G|----7-------7-------7-------7-------7---7---7-------7-----------|
D|----------------------------------------------------------------|
A|----------------------------------------------------------------|
E|------------------------------------------------------------0---|

1:49

G|----------------------------------------------------------------|
D|------------------------------------------------7-----7-----7---|
A|7---------------7-------7---------------------------------------|
E|--------------7-----------------5-------5---5-------------------|

G|----------------------------------------------------------------|
D|----------/-6-----------------------------/-7-------------------| x2
A|4---------------4---4-------4---5---------------5---5-------5---|
E|----------------------------------------------------------------|

2:05

G|----------------------------------------------------------------|
D|--------------7---------7---------------------------------------|
A|--------------------7-------7-----------------7---------7-------|
E|5-------5-----------------------0-----------7-------7-------7---|

G|----------------------------------------------------------------|
D|--------------7---------7---------------------------------------|
A|----7-------7-------7-------7-----------------7---------7-------|
E|5-------------------------------0---0-------7-------7-------7---|

G|----------------------------------------------------------------|
D|----------------------------------------------7-----7-------7---|
A|----------------7-----------------------------------------------|
E|0---0-------7-------7-------7---5---5---------------------------|

2:18

G|----------------------------------------------------------------|
D|----------------------------------------------------------------|
A|5-------------/-5---5-----------4---4-----------4---4-------4---|
E|------------5-------------------------------4-------------------|

G|----------------------------------------------------------------|
D|----------------------------------------------------------------|
A|5---5-----------5---5-----/-5---4---4-----------4---4-------5-/-|
E|------------5-------------------------------4-------------------|

G|----------------------------------------------------------------|
D|----------------------------------------------------------------|
A|7---7---------/-7---7-----------7---------------7---7-----/-7---|
E|------------7---------------7---------------7-------------------|

G|----------------------------------------------------------------|
D|--------------/-7---7---------------------------7---7-----------|
A|------------7---------------7---------------7-------------------|
E|5-------------------------------5---5---------------------------|

G|----7-------7-------7-------7-------7-------7-------7-------7---|
D|----------------------------------------------------------------| x3 to fadeout.
A|----------------------------------------------------------------|
E|----------------------------------------------------------------|

            
            
Suggest correction
Creating personal tab
Creating personal tab
You can edit any tab online and save it as your Personal.

You can edit, replace or remove any tab part or add personal notes – all changes will be seen only by you.

Personal tabs can be accessed anytime from any device, even offline.
Learn more »
Give kudos to tab author, rate the tab!
1 2 3 4 5
comments
print report bad tab
guest
You may want to rate the tab now too:
select rating
Wanna post a correction for this tab? Suggest correction