Oops, an error
Loading. Please wait.

Penny Music bass

31 views 1 this week
no commentswrite comment
1 2 3 4 5
3 more votes to show rating
add to favorites
×
Save as Personal and add changes to this tab that will be seen only by you. Learn more ›
×
You can save this tab as Personal to edit and correct it or add notes. All changes will be seen only by you. Learn more »
launch autoscroll
font size
0
reset
guitar tuner
edit
Autoscroll
slow
fast
+/-
esc
set tempo
stop
Tabbed by: 6METAL6BASSIST6
E-mail: petergriffinav@gmail.com

Re-tabbed.

Tuning: EADG

0:05

G|----------------------------------------------------------------|
D|3-------3-----------------------3-------3-----------------------|
A|----------------3-------3-----------------------3-------3-------|
E|----------------------------------------------------------------|

G|----------------------------------------------------------------|
D|3-------3-----------------------2-------2-------------------3---|
A|--------------3---------------3---------------2-3---3---3-5---5-|
E|----------------1-------1---------------------------------------|

G|----------------------------------------------------------------|
D|3-------3-----------------------3-------3-----------------------|
A|----------------3-------3-----------------------3-------3-------|
E|----------------------------------------------------------------|

G|----------------------------------------------------------------|
D|3-------3-----------------------2-------0-----------------------|
A|--------------3---------------3-----------------3-------1-------|
E|----------------1-------1---------------------------------------|

G|--------------------------3-5-3---------------------------------|
D|------------------------5-----------------------------------2---|
A|3-------------------------------3-------------------3---5-------|
E|----------------------------------------------------------------|

0:28

G|----------------2-------2-------3-------5-----------------------|
D|3-------3---------------------------------------3---3-------3---|
A|----------------------------------------------3---------3-5---5-|
E|----------------------------------------------------------------|

G|----------------------------------------------------------------|
D|3-3-3-3-3-------3-3-3-3-----3---3-3-3-3-3-------3-3-3-3-----3---|
A|------------3-5---------3-5---5-------------3-5---------3-5---5-|
E|----------------------------------------------------------------|

G|------------------------------------------------|
D|3-3-3-3-3-------3-3-3-3-----3---5-----5---------|
A|------------3-5---------3-5---5---------3-----3-|
E|------------------------------------------------|

G|--------2-----2-3-----3-5---------------------------------------|
D|3-----3-----------------------5-5-----5---------3---3-------3---|
A|----------------------------------------3-----3---------3-5---5-|
E|----------------------------------------------------------------|

G|----------------------------------------------------------------|
D|3---------------------------3---3---------------------------3---|
A|------------3-----------3-5---5-------------3-----------3-5---5-|
E|----------------------------------------------------------------|

0:49

G|----------------------------------------------------------------|
D|3-------3-----------------------3-------3-----------------------|
A|----------------3-------3-----------------------3-------3-------|
E|----------------------------------------------------------------|

G|----------------------------------------------------------------|
D|3-------3-----------------------2-------2-------------------3---|
A|--------------3---------------3---------------2-3---3---3-5---5-|
E|----------------1-------1---------------------------------------|

G|----------------------------------------------------------------|
D|3-------3-----------------------3-------3-----------------------|
A|----------------3-------3-----------------------3-------3-------|
E|----------------------------------------------------------------|

G|----------------------------------------------------------------|
D|3-------3-----------------------2-------0-----------------------|
A|--------------3---------------3-----------------3-------1-------|
E|----------------1-------1---------------------------------------|

G|--------------------------3-5-3---------------------------------|
D|------------------------5-----------------------------------2---|
A|3-------------------------------3-------------------3---5-------|
E|----------------------------------------------------------------|

1:10

G|----------------2-------2-------3-------5-----------------------|
D|3-------3---------------------------------------3---3-------3---|
A|----------------------------------------------3---------3-5---5-|
E|----------------------------------------------------------------|

G|----------------------------------------------------------------|
D|3---3---3-------3---3-------3---3---3---3-------3---3-------3---|
A|--------------3---------3-5---5---------------3---------3-5---5-|
E|----------------------------------------------------------------|

G|------------------------------------------------|
D|3---3---3-------3---3-------3---5-----5---------|
A|--------------3---------3-5---5---------3-----3-|
E|------------------------------------------------|

G|--------2-----2-3-----3-5-----5---------------------------------|
D|3-----3-------------------------5-----5---------3---3-------3---|
A|----------------------------------------3-----3---------3-5---5-|
E|----------------------------------------------------------------|

G|----------------------------------------------------------------|
D|3---------------------------3---3---------------------------3---|
A|------------3-----------3-5---5-------------3-----------3-5---5-|
E|----------------------------------------------------------------|

1:32

G|----------------------------------------------------------------|
D|3-------3-----------------------3-------3-----------------------|
A|----------------3-------3-----------------------3-------3-------|
E|----------------------------------------------------------------|

G|----------------------------------------------------------------|
D|3-------3---------------------------------------2---------------|
A|----------------3-------3---------------------3---------3-------|
E|--------------------------------1-------1-----------------------|

G|----------------------------------------------------------------|
D|3-------3-----------------------3-------3-----------------------|
A|----------------3-------3-----------------------3-------3-------|
E|----------------------------------------------------------------|

G|----------------------------------------------------------------|
D|3-------3-----------------------2-------0-----------------------|
A|--------------3---------------3-----------------3-------1-------|
E|----------------1-------1---------------------------------------|

G|--------------------------3-5-3---------------------------------|
D|------------------------5-----------------------------------2---|
A|3-------------------------------3-------------------3---5-------|
E|----------------------------------------------------------------|

1:54

G|----------------2-------2-------3-------5-----------------------|
D|3-------3---------------------------------------3---3-------3---|
A|----------------------------------------------3---------3-5---5-|
E|----------------------------------------------------------------|

G|----------------------------------------------------------------|
D|3-3-3-3-3-------3-3-3-3-----3---3-3-3-3-3-------3---3-3-----3---|
A|------------3-5---------3-5---5-------------3-5---------3-5---5-|
E|----------------------------------------------------------------|

G|------------------------------------------------|
D|3---3-3-3-------3-3-3-3-----3---5-----5---------|
A|------------3-5---------3-5---5---------3-----3-|
E|------------------------------------------------|

G|--------2-----2-3-----3-5---------------------------------------|
D|3-----3-----------------------5-5-----5---------3---3-------3---|
A|----------------------------------------3-----3---------3-5---5-|
E|----------------------------------------------------------------|

2:10

G|--------2-------3-------2---------------------------------------|
D|3-------------------------------5---------------3---3-------3---|
A|----------------------------------------3---------------3-5---5-|
E|----------------------------------------------------------------|

G|------------2---3-------2---------------5-5-5-------------------|
D|3-3-3-3-3---------------------3-5-5-5-----------3---3-------3---|
A|--------------------------------------------------------3-5---5-|
E|----------------------------------------------------------------|

G|------------2---3-3-3-------------------3-4-5-------------------|
D|3---3---3---------------3---4---5---5-----------3---3-------3---|
A|--------------------------------------------------------3-5---5-|
E|----------------------------------------------------------------|

G|------------2---3-3-3---2---------------3-4-5-------------------|
D|3-3-3-3-3-------------------3---5-5-5-----------3-3---------3---|
A|--------------------------------------------------------3-5---5-|
E|----------------------------------------------------------------|

G|------------2---3---3-------------------3-4-5-------------------|
D|3-3-3-3-3---------------3---4---5---5-----------3---3-------3---|
A|--------------------------------------------------------3-5---5-|
E|----------------------------------------------------------------|

G|------------2---3-3-3-------------------------------------------------------2---|
D|3-3-3-3-3-------------------3---5-5-5-------3---3---3-------3---3---3---3-------| fades out here.
A|----------------------------------------3-5---5---------3-5---5-----------------|
E|--------------------------------------------------------------------------------|

            
            
Suggest correction
Creating personal tab
Creating personal tab
You can edit any tab online and save it as your Personal.

You can edit, replace or remove any tab part or add personal notes – all changes will be seen only by you.

Personal tabs can be accessed anytime from any device, even offline.
Learn more »
Give kudos to tab author, rate the tab!
1 2 3 4 5
comments
print report bad tab
guest
You may want to rate the tab now too:
select rating
Wanna post a correction for this tab? Suggest correction