Oops, an error
Loading. Please wait.

Pleasant Valley Sunday bass

version 1
version 1

Whole song

Interactive

589 views 3 this week
no commentswrite comment
1 2 3 4 5
2 more votes to show rating
add to favorites
×
Save as Personal and add changes to this tab that will be seen only by you. Learn more ›
×
You can save this tab as Personal to edit and correct it or add notes. All changes will be seen only by you. Learn more »
launch autoscroll
font size
0
reset
guitar tuner
edit
Autoscroll
slow
fast
+/-
esc
set tempo
stop
Author
Difficulty
Tabbed by: 6METAL6BASSIST6
E-mail: petergriffinav@gmail.com

Tuning: EADG

G|--------------------------------------------------------------------|
D|------------------------------------------------------------------/-|
A|--------------------------------------------------------------------|
E|--------------------------------------------------------------------|

G|----------------------------------------------------------------|
D|7-------------------------------------------------------------/-|
A|----------------------------------------------------------------|
E|----------------------------------------------------------------|

G|----------------------------------------------------------------|
D|7-------------------------------------------------------14\-----|
A|----------------------------------------------------------------|
E|----------------------------------------------------------------|

0:09

G|----------------------------------------------------------------|
D|7-----------7---7-----------7-------7-------7---7---------------|
A|------------------------------------------------------------7---|
E|----------------------------------------------------------------|

G|----------------------------------------------------------------|
D|7-----------7---7-----------7-------7-------7---7-----------5---| x2
A|--------------------------------------------------------7-------|
E|----------------------------------------------------------------|

G|----------------------------------------------------------------|
D|7-----------7---7-----------7-------7-------7---7---------------|
A|------------------------------------------------------------7---|
E|----------------------------------------------------------------|

G|----------------------------------------------------------------|
D|7-----------7---7-----------7-------7-------7---7-----------5---|
A|--------------------------------------------------------7-------|
E|----------------------------------------------------------------|

G|----------------------------------------------------------------|
D|7-----------7---7-----------7-------7-------7---5---------------|
A|----------------------------------------------------7---5-------|
E|----------------------------------------------------------------|

0:25

G|----------------------------------------------------------------|
D|------------------------2---3-----------3-------3---2-----------|
A|3-------3-------3---5---------------3-------------------5---3---|
E|----------------------------------------------------------------|

G|----------------------------------------------------------------|
D|------------------------2---3-----------3-------3---2-----------| x2
A|--------3-------3---5-----------------------------------5---3---|
E|----------------------------------------------------------------|

G|----------------------------------------------------------------|
D|----------------------------------------------------------------|
A|--------3---------------3---3---------------3-----------5-------|
E|----------------3---5---------------3---5-----------------------|

0:36

G|----------------------------------------------------------------|
D|----------------------------5---7-----------7---7---5-----------|
A|7-----------7---7---7-----------------------------------7-------|
E|------------------------------------------------------------5---|

G|----------------------------------------------------------------|
D|--------------/-7-------7---------------------------------------|
A|5-------5-----------------------7-------7-------5-------4-------|
E|----------------------------------------------------------------|

G|------------------------------/-7-------7-----------------------|
D|----------------4-------4-----------------------7-------7-------|
A|2-------2-------------------------------------------------------|
E|----------------------------------------------------------------|

G|----------------------------------------------------------------|
D|--------------------------------------------------------5---6---|
A|7-----------7---7-----------7-------7-------7---7---------------|
E|----------------------------------------------------------------|

0:46

G|----------------------------------------------------------------|
D|7-----------7---7-----------7-------7-------7---7---------------|
A|------------------------------------------------------------7---|
E|----------------------------------------------------------------|

G|----------------------------------------------------------------|
D|7-----------7---7-----------7-------7-------7---7-----------5---| x2
A|--------------------------------------------------------7-------|
E|----------------------------------------------------------------|

G|----------------------------------------------------------------|
D|7-----------7---7-----------7-------7-------7---7---------------|
A|------------------------------------------------------------7---|
E|----------------------------------------------------------------|

G|----------------------------------------------------------------|
D|7-----------7---7-----------7-------7-------7---7-----------5---|
A|--------------------------------------------------------7-------|
E|----------------------------------------------------------------|

G|----------------------------------------------------------------|
D|7-----------7---7-----------7-------7-------7---5---------------|
A|----------------------------------------------------7---5-------|
E|----------------------------------------------------------------|

1:02

G|----------------------------------------------------------------|
D|------------------------2---3-----------3-------3---2-----------|
A|3-------3-------3---5-----------------------------------5---3---|
E|----------------------------------------------------------------|

G|----------------------------------------------------------------|
D|------------------------2---3-----------3-------3---2-----------| x2
A|--------3-------3---5-----------------------------------5---3---|
E|----------------------------------------------------------------|

G|----------------------------------------------------------------|
D|----------------------------------------------------------------|
A|--------3---------------3---3---------------3-----------5-------|
E|----------------3---5---------------3---5-----------------------|

1:13

G|----------------------------------------------------------------|
D|----------------------------5---7-----------7---7---5-----------|
A|7-----------7---7---7-----------------------------------7-------|
E|------------------------------------------------------------5---|

G|----------------------------------------------------------------|
D|--------------/-7-------7---------------------------------------|
A|5-------5-----------------------7-------7-------5-------4-------|
E|----------------------------------------------------------------|

G|------------------------------/-7-------7-----------------------|
D|----------------4-------4-----------------------7-------7-------|
A|2-------2-------------------------------------------------------|
E|----------------------------------------------------------------|

G|----------------------------------------------------------------|
D|----------------------------------------------------------------|
A|7-----------7---7-----------7-------7-------7---5---------------|
E|----------------------------------------------------7---5-------|

1:24

G|----------------------------------------------------------------|
D|----------------------------------------------------------------|
A|------------------------7---7---------------7-------------------|
E|0-------0-------7---9---------------7---9-----------9---7---9---|

G|----------------------------------------------------------------|
D|----------------------------------------------------------------| x6
A|------------------------7---7---------------7-------------------|
E|0-------0-------7---9---------------7---9-----------7---9---7---|

G|----------------------------------------------------------------|
D|--------------------------------------------------------------/-|
A|------------------------7---7---------------7---------------7---|
E|0-------0-------7---9---------------7---9-----------7---9-------|

G|----------------------------------------------------------------|
D|7-------------------------/-7---------------------------------/-|
A|----------------------------------------------------------------|
E|----------------------------------------------------------------|

G|--------------------------/-14----------12----------------------|
D|7-----------------------------------------------14--12\---------|
A|----------------------------------------------------------------|
E|----------------------------------------------------------------|

1:51

G|----------------------------------------------------------------|
D|7-----------7---7-----------7-------7-------7---7-----------5---| x2
A|--------------------------------------------------------7-------|
E|----------------------------------------------------------------|

G|----------------------------------------------------------------|
D|7---------/-7---------/-7---------/-7---------/-7-------5---6---|
A|----------------------------------------------------------------|
E|----------------------------------------------------------------|

G|----------------------------------------------------------------|
D|7-----------7---7-----------7-------7-------7---7-----------5---| x2
A|--------------------------------------------------------7-------|
E|----------------------------------------------------------------|

G|----------------------------------------------------------------|
D|7---------/-7---------/-7---------/-7-----------5---------------|
A|----------------------------------------------------7---5---2---|
E|----------------------------------------------------------------|

2:06

G|----------------------------------------------------------------|
D|------------------------2---3-----------3-------3---2-----------|
A|3-------3-------3---5-----------------------------------5---3---|
E|----------------------------------------------------------------|

G|----------------------------------------------------------------|
D|------------------------2---3-----------3-------3---2-----------| x2
A|--------3-------3---5-----------------------------------5---3---|
E|----------------------------------------------------------------|

G|----------------------------------------------------------------|
D|--------------------------------------------------------2-------|
A|--------3---------------3---3-----------3-----------------------|
E|----------------3---5-------------------------------------------|

2:17

G|------------------------2---3-----------3-------3---2-----------|
D|3-------3-------3---5-----------------------------------5---3---|
A|----------------------------------------------------------------|
E|----------------------------------------------------------------|

G|------------------------2---3-----------3-------3---2-----------|
D|--------3-------3---5-----------------------------------5---3---|
A|----------------------------------------------------------------|
E|----------------------------------------------------------------|

G|------------------------2---3-----------3-------3---2-----------|
D|--------3-------3---5-----------------------------------5-------|
A|------------------------------------------------------------3---|
E|----------------------------------------------------------------|

G|----------------------------------------------------------------|
D|3-------3-------3-------3-----/-3-------3-------3-------5-------|
A|----------------------------------------------------------------|
E|----------------------------------------------------------------|

G|----------------------------------------------------------------|
D|7-------------------------/-7---------------------------------/-|
A|----------------------------------------------------------------|
E|----------------------------------------------------------------|

G|--------------------------/-14----------12----------------------|
D|7-----------------------------------------------14--12\---------|
A|----------------------------------------------------------------|
E|----------------------------------------------------------------|

2:33

G|----------------------------------------------------------------|
D|7---------------7-----------7-------7-------7---7---------------| x2
A|--------------------------------------------------------7---9---|
E|----------------------------------------------------------------|

G|----------------------------------------------------------------|
D|7---------------7-----------7-------7-------7---7---------------|
A|----------------------------------------------------9---7---9---|
E|----------------------------------------------------------------|

G|----------------------------------------------------------------|
D|7---------------7-----------7-------7-------7---7---------------|
A|--------------------------------------------------------7---9---|
E|----------------------------------------------------------------|

G|----------------------------------------------------------------|
D|7---------------7-----------7-------7-------7---7---------------|
A|----------------------------------------------------9---7---9---|
E|----------------------------------------------------------------|

G|----------------------------------------------------------------|
D|7---------------7-----------7-------7-------7-------------------|
A|------------------------------------------------9---7-----------|
E|--------------------------------------------------------9-\-----|

G|----------------------------------------------------------------|
D|----------------------------7-------7-------7---7---------------|
A|----------------7---9---7---------------------------9---7-\-----|
E|5-------5-------------------------------------------------------|

G|----------------------------------------------------------------|
D|----------------------------7-------7-------7---7---------------|
A|----------------7---9---7---------------------------9---7-------|
E|5-------5-------------------------------------------------------|

G|----------------------------------------------------------------|
D|----------------------------7-------7-------7---7---------------| x2
A|----------------7---9---7---------------------------9---7-\-----|
E|5-------5-------------------------------------------------------|

G|------------------------------------------/-14------12----------|
D|----------------------------7-------7-------------------14--12--|
A|----------------7---9---7---------------------------------------|
E|5-------5-------------------------------------------------------|

G|----------------------------------------------------------------|
D|7-------7---------------7---7-------7-------7---7---------------|
A|----------------7---9-------------------------------9---7-\-----|
E|----------------------------------------------------------------|

G|----------------------------------------------------------------|
D|----------------------------7-------7-------7---7---------------| x2
A|----------------7---9---7---------------------------9---7-\-----|
E|5-------5-------------------------------------------------------|

G|--------------------------------|
D|----------------------------7---|
A|----------------7---9---7-------|
E|5-------5-----------------------|



************************************

| /  Slide up
| \  Slide down

************************************

            
            
Suggest correction
Creating personal tab
Creating personal tab
You can edit any tab online and save it as your Personal.

You can edit, replace or remove any tab part or add personal notes – all changes will be seen only by you.

Personal tabs can be accessed anytime from any device, even offline.
Learn more »
Give kudos to tab author, rate the tab!
1 2 3 4 5
comments
print report bad tab
guest
You may want to rate the tab now too:
select rating
Wanna post a correction for this tab? Suggest correction