Oops, an error
Loading. Please wait.

She Hangs Out bass

version 1
version 1

Whole song

439 views 3 this week
no commentswrite comment
1 2 3 4 5
3 more votes to show rating
add to favorites
×
Save as Personal and add changes to this tab that will be seen only by you. Learn more ›
×
You can save this tab as Personal to edit and correct it or add notes. All changes will be seen only by you. Learn more »
launch autoscroll
font size
0
reset
guitar tuner
edit
Autoscroll
slow
fast
+/-
esc
set tempo
stop
Author
Difficulty
Tabbed by: 6METAL6BASSIST6
E-mail: petergriffinav@gmail.com

Tuning: EADG

G|----------------------------------------------------------------|
D|----------------------------------------------------------------|
A|----------------------------------------------------------------|
E|----------------------------------------------------------------|

G|----------------------------------------------------------------|
D|7-h-8-------8-------------------7-h-8-------8-------------------|
A|----------------------------8-------------------------------8---|
E|----------------------------------------------------------------|

0:08

G|----------------------------------------------------------------|
D|7-h-8-------8---------------------------------------------------|
A|--------------------------------5-h-6-------6---------------8---|
E|----------------------------6-----------------------------------|

G|----------------------------------------------------------------|
D|7-h-8-------8-------------------7-h-8-------8-------------------|
A|----------------------------8-------------------------------8---|
E|----------------------------------------------------------------|

G|----------------------------------------------------------------|
D|7-h-8-------8---------------------------------------------------|
A|--------------------------------5-h-6-------6---------------8---|
E|----------------------------6-----------------------------------|

G|----------------------------------------------------------------|
D|7-h-8-------8-------------------7-h-8-------8-------------------|
A|----------------------------8-----------------------------------|
E|------------------------------------------------------------8---|

0:23

G|----------------------------------------------------------------|
D|----------------------------------------------------------------|
A|7-h-8-------8-------------------5-h-6-------6---------------8---|
E|----------------------------6-----------------------------------|

G|----------------------------------------------------------------|
D|7-h-8-------8-------------------7-h-8-------8-------------------|
A|----------------------------8-------------------------------7---|
E|----------------------------------------------------------------|

G|----------------------------------------------------------------|
D|----------------------------------------------------------------|
A|8---8---8---8---8---8---8---7---6---6---6-------6---------------|
E|----------------------------------------------------------------|

G|----------------------------------------------------------------|
D|7-h-8-------8-------------------7-h-8-------8-------------------|
A|----------------------------8---------------------------8-\-----|
E|------------------------------------------------------------1---|

G|----------------------------------------------------------------|
D|----------------------------------------------------------------|
A|0-h-1-------1-------------------0-h-1-------1---------------8---|
E|----------------------------1-----------------------------------|

0:44

G|----------------------------------------------------------------|
D|7-h-8-------8---------------------------------------------------|
A|--------------------------------5-h-6-------6---------------8---|
E|----------------------------6-----------------------------------|

G|----------------------------------------------------------------|
D|7-h-8-------8-------------------7-h-8-------8-------------------|
A|----------------------------8-------------------------------8---|
E|----------------------------------------------------------------|

G|----------------------------------------------------------------|
D|7-h-8-------8---------------------------------------------------|
A|--------------------------------5-h-6-------6---------------8---|
E|----------------------------6-----------------------------------|

G|----------------------------------------------------------------|
D|7-h-8-------8-------------------7-h-8-------8-------------------|
A|----------------------------8-----------------------------------|
E|------------------------------------------------------------8---|

0:56

G|----------------------------------------------------------------|
D|----------------------------------------------------------------|
A|7-h-8-------8-------------------5-h-6-------6---------------8---|
E|----------------------------6-----------------------------------|

G|----------------------------------------------------------------|
D|7-h-8-------8-------------------7-h-8-------8-----------8-------|
A|----------------------------8-----------------------------------|
E|------------------------------------------------------------6---|

G|----------------------------------------------------------------|
D|----------------------------------------------------------------|
A|8---8---8---8---8---8---8---7---6---6---6-------6---------------|
E|----------------------------------------------------------------|

G|----------------------------------------------------------------|
D|7-h-8-------8-------------------7-h-8-------8-------------------|
A|----------------------------8---------------------------8-\-----|
E|------------------------------------------------------------1---|

G|----------------------------------------------------------------|
D|----------------------------------------------------------------|
A|0-h-1-------1-------------------0-h-1-------1-------------------|
E|----------------------------1---------------------------6---6---|

1:18

G|----------------------------------------------------------------|
D|----------------------------------------------------------------|
A|6---6-----------6---6-----------6---6-----------6---6-----------|
E|--------6---8-----------6---8-----------6---8-----------6---8---|

G|----------------------------------------------------------------|
D|----------------------------------------------------------------|
A|6---6-----------6---6-----------6---6-----------6---6---8---10--|
E|--------6---8-----------6---8-----------6---8-------------------|

G|----------------------------------------------------------------|
D|8---8-----------8---8---------------------------8---8-----------|
A|--------8---10----------10--8-----------8---10----------10--8---|
E|--------------------------------6---6---------------------------|

G|----------------------------------------------------------------|
D|----------------8---8---------------------------8---8-----------|
A|--------8---10----------8---10----------8---10----------10------|
E|6---6---------------------------6---6-----------------------10--|

1:33

G|----------------------------------------------------------------|
D|----------------------------------------------------------------|
A|8---8-----------8---8-----------8---8-----------8---8---5-------|
E|--------8---10----------8---10----------8---10--------------6---|

G|----------------------------------------------------------------|
D|----------------------------------------------------------------|
A|6---6-----------6---6-----------6-------------------------------|
E|--------6---8-----------6---8-----------------------------------|

G|----------------------------------------------------------------|
D|7-h-8-------8-------------------7-h-8-------8-------------------|
A|----------------------------8-------------------------------8---|
E|----------------------------------------------------------------|

G|----------------------------------------------------------------|
D|7-h-8-------8---------------------------------------------------|
A|--------------------------------8---8---8---8---8---8---8---8---|
E|----------------------------8-----------------------------------|

1:49

G|----------------------------------------------------------------|
D|7-h-8-------8---------------------------------------------------|
A|--------------------------------5-h-6-------6---------------8---|
E|----------------------------6-----------------------------------|

G|----------------------------------------------------------------|
D|7-h-8-------8-------------------7-h-8-------8-------------------|
A|----------------------------8-------------------------------8---|
E|----------------------------------------------------------------|

G|----------------------------------------------------------------|
D|7-h-8-------8---------------------------------------------------|
A|--------------------------------5-h-6-------6---------------8---|
E|----------------------------6-----------------------------------|

G|----------------------------------------------------------------|
D|7-h-8-------8-------------------7-h-8-------8-------------------|
A|----------------------------8-----------------------------------|
E|------------------------------------------------------------8---|

2:05

G|----------------------------------------------------------------|
D|----------------------------------------------------------------|
A|7-h-8-------8-------------------5-h-6-------6---------------8---|
E|----------------------------6-----------------------------------|

G|----------------------------------------------------------------|
D|7-h-8-------8---------------------------------------------------|
A|----------------------------8-\-0-h-1-------1---------------7---|
E|----------------------------------------------------------------|

G|----------------------------------------------------------------|
D|----------------------------------------------------------------|
A|8---8---8---8---8---8---8---7---6---6---6-------6---------------|
E|----------------------------------------------------------------|

G|----------------------------------------------------------------|
D|7-h-8-------8-------------------7-h-8-------8-------------------|
A|----------------------------8---------------------------8-\-----|
E|----------------------------------------------------------------|

G|----------------------------------------------------------------|
D|----------------------------------------------------------------|
A|0-h-1-------1-------------------0-h-1-------1---------/-8---8---|
E|----------------------------1-----------------------------------|

2:24

G|----------------------------------------------------------------|
D|7-h-8-------8---------------------------------------------------|
A|--------------------------------5-h-6-------6---------------8---|
E|----------------------------6-----------------------------------|

G|----------------------------------------------------------------|.
D|7-h-8-------8-------8-------------------------------------------|.
A|------------------------8-\-----0-h-1-------1---------------8---|.
E|----------------------------1-----------------------------------|.
                                                                   . x2
G|----------------------------------------------------------------|.
D|7-h-8-------8-------8-------------------------------------------|.
A|------------------------8-\-----5-h-6-------6---------------8---|.
E|----------------------------6-----------------------------------|.

G|----------------------------------------------------------------|
D|7-h-8-------8-------8-------------------------------------------|
A|------------------------8-\-----0-h-1-------1---------------8---|
E|----------------------------1-----------------------------------|

G|----------------------------------------------------------------|
D|7-h-8-------8---------------------------------------------------|
A|--------------------------------5-h-6-------6---------------8---|
E|----------------------------6-----------------------------------|

G|------------------------------------------------|
D|7-h-8-------8-------8---6-----------------------| fades out here.
A|----------------------------8---0-h-1-------1---|
E|------------------------------------------------|


***********************************
| \   Slide down
| h   Hammer-on
***********************************

            
            
Suggest correction
Creating personal tab
Creating personal tab
You can edit any tab online and save it as your Personal.

You can edit, replace or remove any tab part or add personal notes – all changes will be seen only by you.

Personal tabs can be accessed anytime from any device, even offline.
Learn more »
Give kudos to tab author, rate the tab!
1 2 3 4 5
comments
print report bad tab
guest
You may want to rate the tab now too:
select rating
Wanna post a correction for this tab? Suggest correction