Oops, an error
Loading. Please wait.

Words bass

version 1
version 1

Whole song

325 views 6 this week
no commentswrite comment
1 2 3 4 5
3 more votes to show rating
add to favorites
×
Save as Personal and add changes to this tab that will be seen only by you. Learn more ›
×
You can save this tab as Personal to edit and correct it or add notes. All changes will be seen only by you. Learn more »
launch autoscroll
font size
0
reset
guitar tuner
edit
Autoscroll
slow
fast
+/-
esc
set tempo
stop
Author
Difficulty
Tabbed by: 6METAL6BASSIST6
E-mail: petergriffinav@gmail.com

Tuning: EADG

G|------------6-------------------------------6-------------------|
D|----------------7---6---------------------------7---6-----------|
A|4-----------------------7---6---4-----------------------7---6---|
E|----------------------------------------------------------------|

G|------------6-------------------------------6-------------------|
D|----------------7---6---------------------------7---6-----------| x5
A|4-----------------------7---\---4-----------------------7---\---|
E|----------------------------------------------------------------|

G|------------6-------------------------------6-------------------|
D|----------------7---6---------------------------7---6-----------|
A|4-----------------------7---6---4---4---4---------------7---6---|
E|----------------------------------------------------------------|

0:24

G|----------------------------------------------------------------|
D|----------------------------------------------------------------|
A|5---5-----------5---5-----------5---5-----------5---5-----------|
E|------------5---------------5---------------5---------------5---|

G|----------------------------------------------------------------|
D|----------------------------------------------------------------|
A|4---4-----------4---4-----------4---4-----------4---4-----------|
E|------------4---------------4---------------4---------------4---|

G|----------------------------------------------------------------|
D|----------------------------------------------------------------|
A|5---5-----------5---5-----------5---5-----------5---5-----------|
E|------------5---------------5---------------5---------------5---|

G|----------------------------------------------------------------|
D|----------------------------------------------------------------|
A|2---2-----------2---2-----------2---2-----------2---2-----------|
E|------------2---------------2---------------2---------------2---|

G|--------------------------------|
D|--------------------------------|
A|2---2---2---2---2---2---2-------|
E|--------------------------------|

0:40

G|------------------------6---9---------------------------6---9---|
D|--------6---9---7---9-------------------6---9---7---9-----------|
A|7---9---------------------------7---9---------------------------|
E|----------------------------------------------------------------|

G|------------------------6---9---6---6---6---6---6---------------|
D|--------6---9---7---9-------------------------------------------|
A|7---9-------------------------------------------------------8---|
E|----------------------------------------------------9---11------|

G|------------------------8---11--------------------------8---11--|
D|--------8---11--9---11------------------8---11--9---11----------|
A|9---11--------------------------9---11--------------------------|
E|----------------------------------------------------------------|

G|------------------------8---11--8---8---8---8---8---8---8---\---|
D|--------8---11--9---11------------------------------------------|
A|9---11----------------------------------------------------------|
E|----------------------------------------------------------------|

G|------------6-------------------|
D|----------------7---6-----------|
A|4-----------------------7---6---|
E|--------------------------------|

0:56

G|------------6-------------------------------6-------------------|
D|----------------7---6---------------------------7---6-----------| x4
A|4-----------------------7---\---4-----------------------7---\---|
E|----------------------------------------------------------------|

G|------------6-------------------------------6-------------------|
D|----------------7---6---------------------------7---6-----------|
A|4-----------------------7---\---4---4---4---------------7-------|
E|----------------------------------------------------------------|

1:14

G|----------------------------------------------------------------|
D|----------------------------------------------------------------|
A|5---5-----------5---5-----------5---5-----------5---5-----------|
E|------------5---------------5---------------5---------------5---|

G|----------------------------------------------------------------|
D|----------------------------------------------------------------|
A|4---4-----------4---4-----------4---4-----------4---4-----------|
E|------------4---------------4---------------4---------------4---|

G|----------------------------------------------------------------|
D|----------------------------------------------------------------|
A|5---5-----------5---5-----------5---5-----------5---5-----------|
E|------------5---------------5---------------5---------------5---|

G|----------------------------------------------------------------|
D|----------------------------------------------------------------|
A|2---2-----------2---2-----------2---2-----------2---2-----------|
E|------------2---------------2---------------2---------------2---|

G|--------------------------------|
D|--------------------------------|
A|2-----------2---2---------------|
E|--------------------------------|

1:30

G|------------------------6---9---------------------------6---9---|
D|------------9---7---9-------------------6---9---7---9-----------|
A|7---9---------------------------7---9---------------------------|
E|----------------------------------------------------------------|

G|------------------------6---9---6---6---6---6---6---------------|
D|--------6---9---7---9-------------------------------------------|
A|7---9-------------------------------------------------------8---|
E|----------------------------------------------------9---11------|

G|------------------------8---11------------------------------11--|
D|--------8---11--9---11------------------8---11--9---11----------|
A|9---11--------------------------9-------------------------------|
E|----------------------------------------------------------------|

G|------------------------8---11--8---8---8---8---8---8-----------|
D|--------8---11--9---11------------------------------------------|
A|9---11--------------------------------------------------7---\---|
E|----------------------------------------------------------------|

1:44

G|------------6-------------------------------6-------------------|
D|----------------7---6---------------------------7---6-----------|
A|4-----------------------7---6---4-----------------------7---\---|
E|----------------------------------------------------------------|

G|--------------------------------------------6-------------------|
D|----------------7---6---------------------------7---6-----------| x2
A|4-----------------------7---\---4-----------------------7---\---|
E|----------------------------------------------------------------|

G|----------------------------------------------------------------|
D|----------------7---6---------------------------7---6-----------|
A|4-----------------------7---6---4---4---4---4-----------7---6---|
E|----------------------------------------------------------------|

1:58

G|----------------------------------------------------------------|
D|----------------------------------------------------------------|
A|5---5-----------5---5-----------5---5-----------5---5-----------|
E|------------5---------------5---------------5---------------5---|

G|----------------------------------------------------------------|
D|----------------------------------------------------------------|
A|4---4-----------4---4-----------4---4-----------4---4-----------|
E|------------4---------------4---------------4---------------4---|

G|----------------------------------------------------------------|
D|----------------------------------------------------------------|
A|5---5-----------5---5-----------5---5-----------5---5-----------|
E|------------5---------------5---------------5---------------5---|

G|----------------------------------------------------------------|
D|----------------------------------------------------------------|
A|2---2-----------2---2-----------2---2-----------2---2-----------|
E|------------2---------------2---------------2---------------2---|

G|--------------------------------|
D|--------------------------------|
A|2---2---2---2---2---------------|
E|--------------------------------|

2:13

G|------------------------6---9---------------------------6---9---|
D|--------6---9---7---9-------------------6---9---7---9-----------|
A|7---9---------------------------7---9---------------------------|
E|----------------------------------------------------------------|

G|------------------------6---9---6---6---6---6---6---------------|
D|--------6---9---7---9-------------------------------------------|
A|7---9-------------------------------------------------------8---|
E|----------------------------------------------------9---11------|

G|------------------------8---11--------------------------8---11--|
D|--------8---11--9---11------------------8---11--9---11----------|
A|9---11--------------------------9---11--------------------------|
E|----------------------------------------------------------------|

G|------------------------8---11--8---8---8---8-------------------|
D|--------8---11--9---11------------------------------------------|
A|----11------------------------------------------------------6---|
E|----------------------------------------------------7---9-------|

G|------------------------6---9---------------------------6---9---|
D|--------6---9-------9-------------------6---9---7---9-----------|
A|7---9-----------0---------------7---9---------------------------|
E|----------------------------------------------------------------|

G|------------------------6---9---6---6---6---6---6---------------|
D|--------6---9---7---9-------------------------------------------|
A|7---9-------------------------------------------------------8---|
E|--------------------------------------------------------11------|

G|------------------------8---11--------------------------8---11--|
D|--------8---11--9---11------------------8---11--9---11----------|
A|9---11------------------------------11--------------------------|
E|----------------------------------------------------------------|

G|------------------------8---11--8---8---8---8---8---------------|
D|--------8---11--9---11------------------------------------------|
A|9---11------------------------------------------------------6---|
E|----------------------------------------------------7---9-------|

G|------------------------6---9---------------------------6---9---|
D|--------6---9---7---9-------------------6---9---7---9-----------|
A|7---9---------------------------7---9---------------------------|
E|----------------------------------------------------------------|

G|------------------------6---9---6---6---6---6---6---------------|
D|--------6---9---7---9-------------------------------------------| fades out here.
A|7---9-------------------------------------------------------8---|
E|----------------------------------------------------9---11------|

            
            
Suggest correction
Creating personal tab
Creating personal tab
You can edit any tab online and save it as your Personal.

You can edit, replace or remove any tab part or add personal notes – all changes will be seen only by you.

Personal tabs can be accessed anytime from any device, even offline.
Learn more »
Give kudos to tab author, rate the tab!
1 2 3 4 5
comments
print report bad tab
guest
You may want to rate the tab now too:
select rating
Wanna post a correction for this tab? Suggest correction