Oops, an error
Loading. Please wait.

Spotty Face tab

562 views 1 this week
1 commentread comment
1 2 3 4 5
x 3
add to favorites
×
Save as Personal and add changes to this tab that will be seen only by you. Learn more ›
×
You can save this tab as Personal to edit and correct it or add notes. All changes will be seen only by you. Learn more »
launch autoscroll
font size
0
reset
how to read this tab
guitar tuner
edit
Autoscroll
slow
fast
+/-
esc
set tempo
stop
Band - The Monks (UK)
Song - Spotty Face
Tabbed By - SumFX (Tyler Freear)

One Of My Personal Favorites From The Monks :)

It Follows The Simple Blues Chord Progression: A D E

. = Palm Mute
w = Whammy Bar

Intro
|-5------------|
|-5----7----9--|
|-6----7----9--|
|-7----7----9--|
|-7----5----7--|
|-5------------|

Verse
|-555---------------555------------------------5555555-----------|
|-555--777--999999--555--777--999999--7777777--5555555--9999999--|
|-666--777--999999--666--777--999999--7777777--6666666--9999999--|
|-777--777--999999--777--777--999999--7777777--7777777--9999999--|
|-777--555--777777--777--555--777777--5555555--7777777--7777777--|
|-555---------------555------------------------5555555-----------|

Chorus 1
"Cause He's Much Too Skinny"
|---------5555555----------5555555----------5555555-------------------|
|-7777777-5555555--7777777-5555555--7777777-5555555--999999999999999--|
|-7777777-6666666--7777777-6666666--7777777-6666666--999999999999999--|
|-7777777-7777777--7777777-7777777--7777777-7777777--999999999999999--|
|-5555555-7777777--5555555-7777777--5555555-7777777--777777777777777--|
|---------5555555----------5555555----------5555555-------------------|

Chorus 2
"Spotty Face Weakling"
|----------------12121212121212--|
|-14141414141414-12121212121212--|
|-14141414141414-13131313131313--|
|-14141414141414-14141414141414--|
|-12121212121212-14141414141414--|
|----------------12121212121212--|

Post Chorus
"Just Ain't Right"
|---------5555555--12121212---|
|-7777777-5555555--12121212---|
|-7777777-6666666--13131313---|
|-7777777-7777777--14141414---|
|-5555555-7777777--14141414---|
|---------5555555--12121212---|

Solo
Alright!                                                           ^^^^
|-----------------|----------------------|-------------------------0---|
|-----------------|----------------------|-15-15--15-15-14-14--14-12w--|
|-----------------|----------------------|-14-14--14-14-14-14--14-13w--|
|-----------------|----------------------|-16-16--16-16-14-14--14-14w--|
|-----------------|----------------------|-----------------------------|
|-0-5-7-9-7-5-7-4-|-0-5-7-9-7-5-7-10-4-4-|-----------------------------|

Bridge
"They Even Took Him To A Dance"
|--------------------|-----------------------------|
|------6666-99999999-|-77777777--------------------|
|-7777-7777-99999999-|-77777777-66666666-99999999--|
|-7777-7777-99999999-|-77777777-77777777-99999999--|
|-7777-5555-77777777-|-55555555-77777777-77777777--|
|-5555---------------|----------55555555-----------|
  .... .... ........   ........ ........ ........

|--------------------|-----------------------------|
|-6666-7777-99999999-|-66666666----------99999999--|
|-7777-7777-99999999-|-77777777-66666666-99999999--|
|-7777-7777-99999999-|-77777777-77777777-99999999--|
|-7777-5555-77777777-|-55555555-77777777-77777777--|
|-5555---------------|----------55555555-----------|
  .... .... ........   ........ ........ ........

Outro
|----------|
|-99--14---|
|-99--14---|
|-99--14---|
|-77--12---|
|----------| 

Structure

Intro x3
Verse x2
Chorus 
Chorus 2 x4
Post Chorus
Verse x2
Chorus 1
Chorus 2 x4
Post Chorus
Solo
Chorus 1
Bridge
Chorus 1
Chorus 2 x4
Post Chorus
Outro


There You Go!

Rate And Comments Please!

            
            
Suggest correction
Creating personal tab
Creating personal tab
You can edit any tab online and save it as your Personal.

You can edit, replace or remove any tab part or add personal notes – all changes will be seen only by you.

Personal tabs can be accessed anytime from any device, even offline.
Learn more »
Give kudos to tab author, rate the tab!
1 2 3 4 5
comments
print report bad tab
1 comment total.
0 reply
CKH 69 Mar 06, 2017 09:14 PM

Great tab! I just submitted a correction on the solo though:

~~~~~~~~~
|--------------------------0-----------|
|--15-15--15---14-14--14---12~~~~~~----|
|--14-14--14---14-14--14---13~~~~~~----|
|--16-16--16---14-14--14---14~~~~~~~---|
|--------------------------------------|
|--------------------------------------|

guest
You may want to rate the tab now too:
select rating
Wanna post a correction for this tab? Suggest correction