Oops, an error
Loading. Please wait.

Question chords

version 3
version 3

Whole song

Interactive

4,995 views 18 this week
1 commentread comment
1 2 3 4 5
1 last vote to show rating
add to favorites
×
Save as Personal and add changes to this tab that will be seen only by you. Learn more ›
×
You can save this tab as Personal to edit and correct it or add notes. All changes will be seen only by you. Learn more »
launch autoscroll
font size
0
reset
transpose
0
reset
display chords
guitar tuner
backing track
0:00
0:00
edit
Autoscroll
slow
fast
+/-
esc
set tempo
stop
Strumming
There is no strumming pattern for this song yet. and get +5 IQ
------------------------------------------------------------------------------------
                               QUESTION – Moody Blues
                                  (Justin Hayward)
                            A Question of Balance [1970]
------------------------------------------------------------------------------------


Tabbed by: varannion
Email:     dm_hughes1@hotmail.com

Tunings

Guitar 1: open C [C G C G C e] (low to high) 12-string acoustic
Guitar 2: standard                            6-string electric


    Intro

      C(XII)                       C7/9sus4
      >          >          >           >             >          >   >          >
e|----12--12-12--12--12-12--12--12--10--10--|--10-10--10--10-10--10--10--10-10--10--10--|
C|----12--12-12--12--12-12--12--12--10--10--|--10-10--10--10-10--10--10--10-10--10--10--|
G|----12--12-12--12--12-12--12--12--10--10--|--10-10--10--10-10--10--10--10-10--10--10--|
C|----0---0--0---0---0--0---0---0---0---0---|--0--0---0---0--0---0---0---0--0---0---0---|
G|----0---0--0---0---0--0---0---0---0---0---|--0--0---0---0--0---0---0---0--0---0---0---|
C|----0---0--0---0---0--0---0---0---0---0---|--0--0---0---0--0---0---0---0--0---0---0---|


      Cmaj9                   C6sus4
      >       >       >          >          >       >  >       >
e|----7-7--7--7-7--7--7--7-7--5--5--|--5-5--5--5-5--5--5--5-5--5--5--|
C|----7-7--7--7-7--7--7--7-7--5--5--|--5-5--5--5-5--5--5--5-5--5--5--|
G|----7-7--7--7-7--7--7--7-7--5--5--|--5-5--5--5-5--5--5--5-5--5--5--|
C|----0-0--0--0-0--0--0--0-0--0--0--|--0-0--0--0-0--0--0--0-0--0--0--|
G|----0-0--0--0-0--0--0--0-0--0--0--|--0-0--0--0-0--0--0--0-0--0--0--|
C|----0-0--0--0-0--0--0--0-0--0--0--|--0-0--0--0-0--0--0--0-0--0--0--|


      Eb                      C  F
      >       >       >       >  >          >  >       >
e|----3--3-3--3--3-3--3--3-3--0--5--|--5-5--5--5--5-5--5--5-5--5--x-x--|
C|----3--3-3--3--3-3--3--3-3--0--5--|--5-5--5--5--5-5--5--5-5--5--x-x--|
G|----3--3-3--3--3-3--3--3-3--0--5--|--5-5--5--5--5-5--5--5-5--5--x-x--|
C|----3--3-3--3--3-3--3--3-3--0--5--|--5-5--5--5--5-5--5--5-5--5--x-x--|
G|----3--3-3--3--3-3--3--3-3--0--5--|--5-5--5--5--5-5--5--5-5--5--x-x--|
C|----3--3-3--3--3-3--3--3-3--0--5--|--5-5--5--5--5-5--5--5-5--5--x-x--|


      Eb                         C  D
      >        >        >        >  >                >        >        >
e|----3-3-3-3--3-3-3-3--3-3-3-3--0--2-2--|--2-2-2-2--2-2-2-2--2-2-2-2--2-2-2-2--|
C|----3-3-3-3--3-3-3-3--3-3-3-3--0--2-2--|--2-2-2-2--2-2-2-2--2-2-2-2--2-2-2-2--|
G|----3-3-3-3--3-3-3-3--3-3-3-3--0--2-2--|--2-2-2-2--2-2-2-2--2-2-2-2--2-2-2-2--|
C|----3-3-3-3--3-3-3-3--3-3-3-3--0--2-2--|--2-2-2-2--2-2-2-2--2-2-2-2--2-2-2-2--|
G|----3-3-3-3--3-3-3-3--3-3-3-3--0--2-2--|--2-2-2-2--2-2-2-2--2-2-2-2--2-2-2-2--|
C|----3-3-3-3--3-3-3-3--3-3-3-3--0--2-2--|--2-2-2-2--2-2-2-2--2-2-2-2--2-2-2-2--|

    Chorus
      Eb                                     F
      >        >        >                    >        >        >        >
e|----3-3-3-3--3-3-3-3--3-3-3-3--3-3-x-x--|--5-5-5-5--5-5-5-5--5-5-5-5--5-5-5-5--|
C|----3-3-3-3--3-3-3-3--3-3-3-3--3-3-x-x--|--5-5-5-5--5-5-5-5--5-5-5-5--5-5-5-5--|
G|----3-3-3-3--3-3-3-3--3-3-3-3--3-3-x-x--|--5-5-5-5--5-5-5-5--5-5-5-5--5-5-5-5--|
C|----3-3-3-3--3-3-3-3--3-3-3-3--3-3-x-x--|--5-5-5-5--5-5-5-5--5-5-5-5--5-5-5-5--|
G|----3-3-3-3--3-3-3-3--3-3-3-3--3-3-x-x--|--5-5-5-5--5-5-5-5--5-5-5-5--5-5-5-5--|
C|----3-3-3-3--3-3-3-3--3-3-3-3--3-3-x-x--|--5-5-5-5--5-5-5-5--5-5-5-5--5-5-5-5--|

  
      Eb                         D
      >        >        >           >          >  >       >       >
e|----3-3-3-3--3-3-3-3--3-3-3-3--2--2--|--2-2--2--2--2-2--2--2-2--2--2-2--|
C|----3-3-3-3--3-3-3-3--3-3-3-3--2--2--|--2-2--2--2--2-2--2--2-2--2--2-2--|
G|----3-3-3-3--3-3-3-3--3-3-3-3--2--2--|--2-2--2--2--2-2--2--2-2--2--2-2--|
C|----3-3-3-3--3-3-3-3--3-3-3-3--2--2--|--2-2--2--2--2-2--2--2-2--2--2-2--|
G|----3-3-3-3--3-3-3-3--3-3-3-3--2--2--|--2-2--2--2--2-2--2--2-2--2--2-2--|
C|----3-3-3-3--3-3-3-3--3-3-3-3--2--2--|--2-2--2--2--2-2--2--2-2--2--2-2--|


      Eb                         F
      >       >       >       >  >              >        >       >
e|----3--3-3--3--3-3--3--3-3--3--5--|-(5)-5--5--5-5-5-5--5--5-5--5--5-5--|
C|----3--3-3--3--3-3--3--3-3--3--5--|-(5)-5--5--5-5-5-5--5--5-5--5--5-5--|
G|----3--3-3--3--3-3--3--3-3--3--5--|-(5)-5--5--5-5-5-5--5--5-5--5--5-5--|
C|----3--3-3--3--3-3--3--3-3--3--5--|-(5)-5--5--5-5-5-5--5--5-5--5--5-5--|
G|----3--3-3--3--3-3--3--3-3--3--5--|-(5)-5--5--5-5-5-5--5--5-5--5--5-5--|
C|----3--3-3--3--3-3--3--3-3--3--5--|-(5)-5--5--5-5-5-5--5--5-5--5--5-5--|


      Eb                         D
      >       >       >       >  >              >       >       >
e|----3--3-3--3--3-3--3--3-3--3--2--|-(2)-2--2--2--2-2--2--2-2--2--2-2--|
C|----3--3-3--3--3-3--3--3-3--3--2--|-(2)-2--2--2--2-2--2--2-2--2--2-2--|
G|----3--3-3--3--3-3--3--3-3--3--2--|-(2)-2--2--2--2-2--2--2-2--2--2-2--|
C|----3--3-3--3--3-3--3--3-3--3--2--|-(2)-2--2--2--2-2--2--2-2--2--2-2--|
G|----3--3-3--3--3-3--3--3-3--3--2--|-(2)-2--2--2--2-2--2--2-2--2--2-2--|
C|----3--3-3--3--3-3--3--3-3--3--2--|-(2)-2--2--2--2-2--2--2-2--2--2-2--|


      G                          C
      >       >       >       >          >       >       >       >
e|----7--7-7--7--7-7--7--7-7--7--0-0--|--0--0-0--0--0-0--0--0-0--0--0-0--|
C|----7--7-7--7--7-7--7--7-7--7--0-0--|--0--0-0--0--0-0--0--0-0--0--0-0--|
G|----7--7-7--7--7-7--7--7-7--7--0-0--|--0--0-0--0--0-0--0--0-0--0--0-0--|
C|----7--7-7--7--7-7--7--7-7--7--0-0--|--0--0-0--0--0-0--0--0-0--0--0-0--|
G|----7--7-7--7--7-7--7--7-7--7--0-0--|--0--0-0--0--0-0--0--0-0--0--0-0--|
C|----7--7-7--7--7-7--7--7-7--7--0-0--|--0--0-0--0--0-0--0--0-0--0--0-0--|


      Cdim7           G7/C       C     
      >       >       >       >             >           >
e|----2--2-2--2--2-2--1--1-1--1--0-0--|--0--0--0-0-0-0--0--0-0--0-0-0-0--|
C|----x--x-x--x--x-x--2--2-2--2--0-0--|--0--0--0-0-0-0--0--0-0--0-0-0-0--|
G|----2--2-2--2--2-2--0--0-0--0--0-0--|--0--0--0-0-0-0--0--0-0--0-0-0-0--|
C|----0--0-0--0--0-0--0--0-0--0--0-0--|--0--0--0-0-0-0--0--0-0--0-0-0-0--|
G|----0--0-0--0--0-0--0--0-0--0--0-0--|--0--0--0-0-0-0--0--0-0--0-0-0-0--|
C|----0--0-0--0--0-0--0--0-0--0--0-0--|--0--0--0-0-0-0--0--0-0--0-0-0-0--|


      Cdim7           G9/C       C5            G9/C C          G7/C C
      >       >       >       >          >       >       >       >
e|----2--2-2--2--2-2--5--5-5--5--3-3--|--3--3-3--5--0-0--0--0-0--1--0-0--|
C|----x--x-x--x--x-x--5--5-5--5--0-0--|--0--0-0--5--0-0--0--0-0--2--0-0--|
G|----2--2-2--2--2-2--0--0-0--0--0-0--|--0--0-0--0--0-0--0--0-0--0--0-0--|
C|----0--0-0--0--0-0--0--0-0--0--0-0--|--0--0-0--0--0-0--0--0-0--0--0-0--|
G|----0--0-0--0--0-0--0--0-0--0--0-0--|--0--0-0--0--0-0--0--0-0--0--0-0--|
C|----0--0-0--0--0-0--0--0-0--0--0-0--|--0--0-0--0--0-0--0--0-0--0--0-0--|

    Verse 1
      Cdim7           G7/C       C             G7/C C          G7/C C
      >       >       >       >          >       >       >       >
e|----2--2-2--2--2-2--1--1-1--1--0-0--|--0--0-0--1--0-0--0--0-0--1--0-0--|
C|----x--x-x--x--x-x--2--2-2--2--0-0--|--0--0-0--2--0-0--0--0-0--2--0-0--|
G|----2--2-2--2--2-2--0--0-0--0--0-0--|--0--0-0--0--0-0--0--0-0--0--0-0--|
C|----0--0-0--0--0-0--0--0-0--0--0-0--|--0--0-0--0--0-0--0--0-0--0--0-0--|
G|----0--0-0--0--0-0--0--0-0--0--0-0--|--0--0-0--0--0-0--0--0-0--0--0-0--|
C|----0--0-0--0--0-0--0--0-0--0--0-0--|--0--0-0--0--0-0--0--0-0--0--0-0--|


      Cdim7           G9/C       C
      >       >       >       >          >       >       >       >
e|----2--2-2--2--2-2--5--5-5--5--0-0--|--0--0-0--0--0-0--0--0-0--0--0-0--|
C|----x--x-x--x--x-x--5--5-5--5--0-0--|--0--0-0--0--0-0--0--0-0--0--0-0--|
G|----2--2-2--2--2-2--0--0-0--0--0-0--|--0--0-0--0--0-0--0--0-0--0--0-0--|
C|----0--0-0--0--0-0--0--0-0--0--0-0--|--0--0-0--0--0-0--0--0-0--0--0-0--|
G|----0--0-0--0--0-0--0--0-0--0--0-0--|--0--0-0--0--0-0--0--0-0--0--0-0--|
C|----0--0-0--0--0-0--0--0-0--0--0-0--|--0--0-0--0--0-0--0--0-0--0--0-0--|


      Cdim7           G7/C       C             G7/C C          G7/C C
      >       >       >       >          >       >       >       >
e|----2--2-2--2--2-2--1--1-1--1--0-0--|--0--0-0--1--0-0--0--0-0--1--0-0--|
C|----x--x-x--x--x-x--2--2-2--2--0-0--|--0--0-0--2--0-0--0--0-0--2--0-0--|
G|----2--2-2--2--2-2--0--0-0--0--0-0--|--0--0-0--0--0-0--0--0-0--0--0-0--|
C|----0--0-0--0--0-0--0--0-0--0--0-0--|--0--0-0--0--0-0--0--0-0--0--0-0--|
G|----0--0-0--0--0-0--0--0-0--0--0-0--|--0--0-0--0--0-0--0--0-0--0--0-0--|
C|----0--0-0--0--0-0--0--0-0--0--0-0--|--0--0-0--0--0-0--0--0-0--0--0-0--|


      Cdim7           G9/C       C
      >       >       >       >          >       >       >       >
e|----2--2-2--2--2-2--5--5-5--5--0-0--|--0--0-0--0--0-0--0--0-0--0--0-0--|
C|----x--x-x--x--x-x--5--5-5--5--0-0--|--0--0-0--0--0-0--0--0-0--0--0-0--|
G|----2--2-2--2--2-2--0--0-0--0--0-0--|--0--0-0--0--0-0--0--0-0--0--0-0--|
C|----0--0-0--0--0-0--0--0-0--0--0-0--|--0--0-0--0--0-0--0--0-0--0--0-0--|
G|----0--0-0--0--0-0--0--0-0--0--0-0--|--0--0-0--0--0-0--0--0-0--0--0-0--|
C|----0--0-0--0--0-0--0--0-0--0--0-0--|--0--0-0--0--0-0--0--0-0--0--0-0--|


      Cdim7           G7/C       C             G7/C C          G7/C C
      >       >       >       >          >       >       >       >
e|----2--2-2--2--2-2--1--1-1--1--0-0--|--0--0-0--1--0-0--0--0-0--1--0-0--|
C|----x--x-x--x--x-x--2--2-2--2--0-0--|--0--0-0--2--0-0--0--0-0--2--0-0--|
G|----2--2-2--2--2-2--0--0-0--0--0-0--|--0--0-0--0--0-0--0--0-0--0--0-0--|
C|----0--0-0--0--0-0--0--0-0--0--0-0--|--0--0-0--0--0-0--0--0-0--0--0-0--|
G|----0--0-0--0--0-0--0--0-0--0--0-0--|--0--0-0--0--0-0--0--0-0--0--0-0--|
C|----0--0-0--0--0-0--0--0-0--0--0-0--|--0--0-0--0--0-0--0--0-0--0--0-0--|


      Cdim7           G9/C       C
      >       >       >       >          >       >       >       >
e|----2--2-2--2--2-2--5--5-5--5--0-0--|--0--0-0--0--0-0--0--0-0--0--0-0--|
C|----x--x-x--x--x-x--5--5-5--5--0-0--|--0--0-0--0--0-0--0--0-0--0--0-0--|
G|----2--2-2--2--2-2--0--0-0--0--0-0--|--0--0-0--0--0-0--0--0-0--0--0-0--|
C|----0--0-0--0--0-0--0--0-0--0--0-0--|--0--0-0--0--0-0--0--0-0--0--0-0--|
G|----0--0-0--0--0-0--0--0-0--0--0-0--|--0--0-0--0--0-0--0--0-0--0--0-0--|
C|----0--0-0--0--0-0--0--0-0--0--0-0--|--0--0-0--0--0-0--0--0-0--0--0-0--|


      Cdim7           G7/C       C             G7/C C          G7/C C
      >       >       >       >          >       >       >       >
e|----2--2-2--2--2-2--1--1-1--1--0-0--|--0--0-0--1--0-0--0--0-0--1--0-0--|
C|----x--x-x--x--x-x--2--2-2--2--0-0--|--0--0-0--2--0-0--0--0-0--2--0-0--|
G|----2--2-2--2--2-2--0--0-0--0--0-0--|--0--0-0--0--0-0--0--0-0--0--0-0--|
C|----0--0-0--0--0-0--0--0-0--0--0-0--|--0--0-0--0--0-0--0--0-0--0--0-0--|
G|----0--0-0--0--0-0--0--0-0--0--0-0--|--0--0-0--0--0-0--0--0-0--0--0-0--|
C|----0--0-0--0--0-0--0--0-0--0--0-0--|--0--0-0--0--0-0--0--0-0--0--0-0--|


      Cdim7           G9/C       C
      >       >       >       >          >       >       >       >
e|----2--2-2--2--2-2--5--5-5--5--0-0--|--0--0-0--0--0-0--0--0-0--0--0-0--|
C|----x--x-x--x--x-x--5--5-5--5--0-0--|--0--0-0--0--0-0--0--0-0--0--0-0--|
G|----2--2-2--2--2-2--0--0-0--0--0-0--|--0--0-0--0--0-0--0--0-0--0--0-0--|
C|----0--0-0--0--0-0--0--0-0--0--0-0--|--0--0-0--0--0-0--0--0-0--0--0-0--|
G|----0--0-0--0--0-0--0--0-0--0--0-0--|--0--0-0--0--0-0--0--0-0--0--0-0--|
C|----0--0-0--0--0-0--0--0-0--0--0-0--|--0--0-0--0--0-0--0--0-0--0--0-0--|

    Chorus
      Eb                                     F
      >        >        >                    >        >        >        >
e|----3-3-3-3--3-3-3-3--3-3-3-3--3-3-x-x--|--5-5-5-5--5-5-5-5--5-5-5-5--5-5-5-5--|
C|----3-3-3-3--3-3-3-3--3-3-3-3--3-3-x-x--|--5-5-5-5--5-5-5-5--5-5-5-5--5-5-5-5--|
G|----3-3-3-3--3-3-3-3--3-3-3-3--3-3-x-x--|--5-5-5-5--5-5-5-5--5-5-5-5--5-5-5-5--|
C|----3-3-3-3--3-3-3-3--3-3-3-3--3-3-x-x--|--5-5-5-5--5-5-5-5--5-5-5-5--5-5-5-5--|
G|----3-3-3-3--3-3-3-3--3-3-3-3--3-3-x-x--|--5-5-5-5--5-5-5-5--5-5-5-5--5-5-5-5--|
C|----3-3-3-3--3-3-3-3--3-3-3-3--3-3-x-x--|--5-5-5-5--5-5-5-5--5-5-5-5--5-5-5-5--|

 
      Eb                         D
      >        >        >           >          >  >       >       >
e|----3-3-3-3--3-3-3-3--3-3-3-3--2--2--|--2-2--2--2--2-2--2--2-2--2--2-2--|
C|----3-3-3-3--3-3-3-3--3-3-3-3--2--2--|--2-2--2--2--2-2--2--2-2--2--2-2--|
G|----3-3-3-3--3-3-3-3--3-3-3-3--2--2--|--2-2--2--2--2-2--2--2-2--2--2-2--|
C|----3-3-3-3--3-3-3-3--3-3-3-3--2--2--|--2-2--2--2--2-2--2--2-2--2--2-2--|
G|----3-3-3-3--3-3-3-3--3-3-3-3--2--2--|--2-2--2--2--2-2--2--2-2--2--2-2--|
C|----3-3-3-3--3-3-3-3--3-3-3-3--2--2--|--2-2--2--2--2-2--2--2-2--2--2-2--|


      Eb                         F
      >       >       >       >  >              >        >       >
e|----3--3-3--3--3-3--3--3-3--3--5--|-(5)-5--5--5-5-5-5--5--5-5--5--5-5--|
C|----3--3-3--3--3-3--3--3-3--3--5--|-(5)-5--5--5-5-5-5--5--5-5--5--5-5--|
G|----3--3-3--3--3-3--3--3-3--3--5--|-(5)-5--5--5-5-5-5--5--5-5--5--5-5--|
C|----3--3-3--3--3-3--3--3-3--3--5--|-(5)-5--5--5-5-5-5--5--5-5--5--5-5--|
G|----3--3-3--3--3-3--3--3-3--3--5--|-(5)-5--5--5-5-5-5--5--5-5--5--5-5--|
C|----3--3-3--3--3-3--3--3-3--3--5--|-(5)-5--5--5-5-5-5--5--5-5--5--5-5--|


      Eb                         D
      >       >       >       >  >              >       >       >
e|----3--3-3--3--3-3--3--3-3--3--2--|-(2)-2--2--2--2-2--2--2-2--2--2-2--|
C|----3--3-3--3--3-3--3--3-3--3--2--|-(2)-2--2--2--2-2--2--2-2--2--2-2--|
G|----3--3-3--3--3-3--3--3-3--3--2--|-(2)-2--2--2--2-2--2--2-2--2--2-2--|
C|----3--3-3--3--3-3--3--3-3--3--2--|-(2)-2--2--2--2-2--2--2-2--2--2-2--|
G|----3--3-3--3--3-3--3--3-3--3--2--|-(2)-2--2--2--2-2--2--2-2--2--2-2--|
C|----3--3-3--3--3-3--3--3-3--3--2--|-(2)-2--2--2--2-2--2--2-2--2--2-2--|


      G                            C
      >       >       >       >          >       >       >       >
e|----7--7-7--7--7-7--7--7-7--7--0-0--|--0--0-0--0--0-0--0--0-0--0--0-0--|
C|----7--7-7--7--7-7--7--7-7--7--0-0--|--0--0-0--0--0-0--0--0-0--0--0-0--|
G|----7--7-7--7--7-7--7--7-7--7--0-0--|--0--0-0--0--0-0--0--0-0--0--0-0--|
C|----7--7-7--7--7-7--7--7-7--7--0-0--|--0--0-0--0--0-0--0--0-0--0--0-0--|
G|----7--7-7--7--7-7--7--7-7--7--0-0--|--0--0-0--0--0-0--0--0-0--0--0-0--|
C|----7--7-7--7--7-7--7--7-7--7--0-0--|--0--0-0--0--0-0--0--0-0--0--0-0--|


      Cdim7           G7/C       C             G7/C C          G7/C C
      >       >       >       >          >       >       >       >
e|----2--2-2--2--2-2--1--1-1--1--0-0--|--0--0-0--1--0-0--0--0-0--1--0-0--|
C|----x--x-x--x--x-x--2--2-2--2--0-0--|--0--0-0--2--0-0--0--0-0--2--0-0--|
G|----2--2-2--2--2-2--0--0-0--0--0-0--|--0--0-0--0--0-0--0--0-0--0--0-0--|
C|----0--0-0--0--0-0--0--0-0--0--0-0--|--0--0-0--0--0-0--0--0-0--0--0-0--|
G|----0--0-0--0--0-0--0--0-0--0--0-0--|--0--0-0--0--0-0--0--0-0--0--0-0--|
C|----0--0-0--0--0-0--0--0-0--0--0-0--|--0--0-0--0--0-0--0--0-0--0--0-0--|


      Cdim7           G9/C       C
      >       >       >       >          >       >       >       >
e|----2--2-2--2--2-2--5--5-5--5--0-0--|--0--0-0--0--0-0--0--0-0--0--0-0--|
C|----x--x-x--x--x-x--5--5-5--5--0-0--|--0--0-0--0--0-0--0--0-0--0--0-0--|
G|----2--2-2--2--2-2--0--0-0--0--0-0--|--0--0-0--0--0-0--0--0-0--0--0-0--|
C|----0--0-0--0--0-0--0--0-0--0--0-0--|--0--0-0--0--0-0--0--0-0--0--0-0--|
G|----0--0-0--0--0-0--0--0-0--0--0-0--|--0--0-0--0--0-0--0--0-0--0--0-0--|
C|----0--0-0--0--0-0--0--0-0--0--0-0--|--0--0-0--0--0-0--0--0-0--0--0-0--|

    Verse 2
      Cdim7           G7/C       C             G7/C C          G7/C C
      >       >       >       >          >       >       >       >
e|----2--2-2--2--2-2--1--1-1--1--0-0--|--0--0-0--1--0-0--0--0-0--1--0-0--|
C|----x--x-x--x--x-x--2--2-2--2--0-0--|--0--0-0--2--0-0--0--0-0--2--0-0--|
G|----2--2-2--2--2-2--0--0-0--0--0-0--|--0--0-0--0--0-0--0--0-0--0--0-0--|
C|----0--0-0--0--0-0--0--0-0--0--0-0--|--0--0-0--0--0-0--0--0-0--0--0-0--|
G|----0--0-0--0--0-0--0--0-0--0--0-0--|--0--0-0--0--0-0--0--0-0--0--0-0--|
C|----0--0-0--0--0-0--0--0-0--0--0-0--|--0--0-0--0--0-0--0--0-0--0--0-0--|


      Cdim7           G9/C       C
      >       >       >       >          >       >       >       >
e|----2--2-2--2--2-2--5--5-5--5--0-0--|--0--0-0--0--0-0--0--0-0--0--0-0--|
C|----x--x-x--x--x-x--5--5-5--5--0-0--|--0--0-0--0--0-0--0--0-0--0--0-0--|
G|----2--2-2--2--2-2--0--0-0--0--0-0--|--0--0-0--0--0-0--0--0-0--0--0-0--|
C|----0--0-0--0--0-0--0--0-0--0--0-0--|--0--0-0--0--0-0--0--0-0--0--0-0--|
G|----0--0-0--0--0-0--0--0-0--0--0-0--|--0--0-0--0--0-0--0--0-0--0--0-0--|
C|----0--0-0--0--0-0--0--0-0--0--0-0--|--0--0-0--0--0-0--0--0-0--0--0-0--|


      Cdim7           G7/C       C             G7/C C          G7/C C
      >       >       >       >          >       >       >       >
e|----2--2-2--2--2-2--1--1-1--1--0-0--|--0--0-0--1--0-0--0--0-0--1--0-0--|
C|----x--x-x--x--x-x--2--2-2--2--0-0--|--0--0-0--2--0-0--0--0-0--2--0-0--|
G|----2--2-2--2--2-2--0--0-0--0--0-0--|--0--0-0--0--0-0--0--0-0--0--0-0--|
C|----0--0-0--0--0-0--0--0-0--0--0-0--|--0--0-0--0--0-0--0--0-0--0--0-0--|
G|----0--0-0--0--0-0--0--0-0--0--0-0--|--0--0-0--0--0-0--0--0-0--0--0-0--|
C|----0--0-0--0--0-0--0--0-0--0--0-0--|--0--0-0--0--0-0--0--0-0--0--0-0--|

                                       Half-time
      Cdim7           G9/C       C       C                             C6sus4
      >       >       >       >
e|----2--2-2--2--2-2--5--5-5--5--0-0--|-(0)----------0--0-0--(0)-0--0--1-1-1-1--|
C|----x--x-x--x--x-x--5--5-5--5--0-0--|-(0)----------0--0-0--(0)-0--0--0-0-0-0--|
G|----2--2-2--2--2-2--0--0-0--0--0-0--|-(0)----------0--0-0--(0)-0--0--2-2-2-2--|
C|----0--0-0--0--0-0--0--0-0--0--0-0--|-(0)----------0--0-0--(0)-0--0--0-0-0-0--|
G|----0--0-0--0--0-0--0--0-0--0--0-0--|-(0)----------0--0-0--(0)-0--0--0-0-0-0--|
C|----0--0-0--0--0-0--0--0-0--0--0-0--|-(0)----------0--0-0--(0)-0--0--0-0-0-0--|


      C               Csus4                C             Csus4

e|----0--0-0--0--0-0--1-1-1-1--1-1-1-1--|--0--0--0--0-0--1-1-1-1--(1)-1-1-1--|
C|----0--0-0--0--0-0--0-0-0-0--0-0-0-0--|--0--0--0--0-0--0-0-0-0--(0)-0-0-0--|
G|----0--0-0--0--0-0--2-2-2-2--2-2-2-2--|--0--0--0--0-0--2-2-2-2--(2)-2-2-2--|
C|----0--0-0--0--0-0--0-0-0-0--0-0-0-0--|--0--0--0--0-0--0-0-0-0--(0)-0-0-0--|
G|----0--0-0--0--0-0--0-0-0-0--0-0-0-0--|--0--0--0--0-0--0-0-0-0--(0)-0-0-0--|
C|----0--0-0--0--0-0--0-0-0-0--0-0-0-0--|--0--0--0--0-0--0-0-0-0--(0)-0-0-0--|

                                        Bridge
      C                  G7sus4/D C/E   F         C/E            C

e|----0--0-0--0--0-0--0-0-0-0--1--3--|--5--5--5-5-3-3--3--3-3--3-0--|
C|----0--0-0--0--0-0--0-0-0-0--0--0--|--5--5--5-5-0-0--0--0-0--0-0--|
G|----0--0-0--0--0-0--0-0-0-0--0--0--|--5--5--5-5-0-0--0--0-0--0-0--|
C|----0--0-0--0--0-0--0-0-0-0--2--4--|--5--5--5-5-4-4--4--4-4--4-0--|
G|----0--0-0--0--0-0--0-0-0-0--x--x--|--5--5--5-5-x-x--x--x-x--x-0--|
C|----0--0-0--0--0-0--0-0-0-0--2--4--|--5--5--5-5-4-4--4--4-4--4-0--|


      G7sus4/D     C    G7sus4/D C/E   F          C/E           C    

e|----1--1-1--1--1-0--0-0--0--1--3--|--5--5--5--5-3--3-3--3--3--0--|
C|----0--0-0--0--0-0--0-0--0--0--0--|--5--5--5--5-0--0-0--0--0--0--|
G|----0--0-0--0--0-0--0-0--0--0--0--|--5--5--5--5-0--0-0--0--0--0--|
C|----2--2-2--2--2-0--0-0--0--2--4--|--5--5--5--5-4--4-4--4--4--0--|
G|----x--x-x--x--x-0--0-0--0--x--x--|--5--5--5--5-x--x-x--x--x--0--|
C|----2--2-2--2--2-0--0-0--0--2--4--|--5--5--5--5-4--4-4--4--4--0--|


      G7sus4/D         C                  G7sus4/D C/E
                       nh
e|----1--1-1--1--1--|--12--------------------0--1--3--|
C|----0--0-0--0--0--|--12--------------------0--0--0--|
G|----0--0-0--0--0--|--12--------------------0--0--0--|
C|----2--2-2--2--2--|--12--------------------0--2--4--|
G|----x--x-x--x--x--|--12--------------------0--x--x--|
C|----2--2-2--2--2--|--12--------------------0--2--4--|


      F         C/E            C     G7sus4/D     C    G7sus4/D C/E

e|----5--5--5-5-3-3--3--3-3--3-0--|--1--1-1--1--1-0--0-0--0--1--3--|
C|----5--5--5-5-0-0--0--0-0--0-0--|--0--0-0--0--0-0--0-0--0--0--0--|
G|----5--5--5-5-0-0--0--0-0--0-0--|--0--0-0--0--0-0--0-0--0--0--0--|
C|----5--5--5-5-4-4--4--4-4--4-0--|--2--2-2--2--2-0--0-0--0--2--4--|
G|----5--5--5-5-x-x--x--x-x--x-0--|--x--x-x--x--x-0--0-0--0--x--x--|
C|----5--5--5-5-4-4--4--4-4--4-0--|--2--2-2--2--2-0--0-0--0--2--4--|


      F          C/E           C     G7sus4/D

e|----5--5--5--5-3--3-3--3--3--0--|--1--1-1--1--1--|
C|----5--5--5--5-0--0-0--0--0--0--|--0--0-0--0--0--|
G|----5--5--5--5-0--0-0--0--0--0--|--0--0-0--0--0--|
C|----5--5--5--5-4--4-4--4--4--0--|--2--2-2--2--2--|
G|----5--5--5--5-x--x-x--x--x--0--|--x--x-x--x--x--|
C|----5--5--5--5-4--4-4--4--4--0--|--2--2-2--2--2--|


      C                C6sus4 C5       G  G7
      nh
e|----12--------------------1-3--3--|--7--7--7-7--7-7--7--7-7--|
C|----12--------------------0-0--0--|--7--7--7-7--7-7--7--7-7--|
G|----12--------------------2-0--0--|--7--10-1010-1010-10-1010-|
C|----12--------------------0-0--0--|--7--7--7-7--7-7--7--7-7--|
G|----12--------------------0-0--0--|--7--7--7-7--7-7--7--7-7--|
C|----12--------------------0-0--0--|--7--7--7-7--7-7--7--7-7--|


      C   C6sus4 C C6sus4 C              G7
                               >
e|----0--0--1-0-1-0--0--0-0--0-0-0-0--|--7--7-7--7--7-7-(7)-7-7-7--7-7-7-7--|
C|----0--0--0-0-0-0--0--0-0--0-0-0-0--|--7--7-7--7--7-7-(7)-7-7-7--7-7-7-7--|
G|----0--0--2-0-2-0--0--0-0--0-0-0-0--|--10-1010-10-1010(10)101010-10101010-|
C|----0--0--0-0-0-0--0--0-0--0-0-0-0--|--7--7-7--7--7-7-(7)-7-7-7--7-7-7-7--|
G|----0--0--0-0-0-0--0--0-0--0-0-0-0--|--7--7-7--7--7-7-(7)-7-7-7--7-7-7-7--|
C|----0--0--0-0-0-0--0--0-0--0-0-0-0--|--7--7-7--7--7-7-(7)-7-7-7--7-7-7-7--|


      C                   G7sus4/D C/E     F          Fadd2        C/E G7sus4/D

e|----0--0-0--0--0-0--0--0-1-(1)-1-3-3--|--5--5-5--5--5-5--5-5-5-5--3--1-1--|
C|----0--0-0--0--0-0--0--0-0-(0)-0-0-0--|--5--5-5--5--7-7--7-7-7-7--0--0-0--|
G|----0--0-0--0--0-0--0--0-0-(0)-0-0-0--|--5--5-5--5--5-5--5-5-5-5--0--0-0--|
C|----0--0-0--0--0-0--0--0-2-(2)-2-4-4--|--5--5-5--5--5-5--5-5-5-5--4--2-2--|
G|----0--0-0--0--0-0--0--0-x-(x)-x-x-x--|--5--5-5--5--5-5--5-5-5-5--x--x-x--|
C|----0--0-0--0--0-0--0--0-2-(2)-2-4-4--|--5--5-5--5--5-5--5-5-5-5--4--2-2--|


      C                           G                     G7      G6 C

e|----0--0-0--0--0-0--0--0-0--0-0-7-7--|--7--7--7--7-7--7--7-7--7--0--|
C|----0--0-0--0--0-0--0--0-0--0-0-7-7--|--7--7--7--7-7--7--7-7--7--0--|
G|----0--0-0--0--0-0--0--0-0--0-0-7-7--|--7--7--7--7-7--10-1010-9--0--|
C|----0--0-0--0--0-0--0--0-0--0-0-7-7--|--7--7--7--7-7--7--7-7--7--0--|
G|----0--0-0--0--0-0--0--0-0--0-0-7-7--|--7--7--7--7-7--7--7-7--7--0--|
C|----0--0-0--0--0-0--0--0-0--0-0-7-7--|--7--7--7--7-7--7--7-7--7--0--|


      C                  G7sus4/D C/E   F         C/E            C
      nh
e|----12--------------------0--1--3--|--5--5--5-5-3-3--3--3-3--3-0--|
C|----12--------------------0--0--0--|--5--5--5-5-0-0--0--0-0--0-0--|
G|----12--------------------0--0--0--|--5--5--5-5-0-0--0--0-0--0-0--|
C|----12--------------------0--2--4--|--5--5--5-5-4-4--4--4-4--4-0--|
G|----12--------------------0--x--x--|--5--5--5-5-x-x--x--x-x--x-0--|
C|----12--------------------0--2--4--|--5--5--5-5-4-4--4--4-4--4-0--|


      G7sus4/D     C    G7sus4/D C/E   F          C/E           C    

e|----1--1-1--1--1-0--0-0--0--1--3--|--5--5--5--5-3--3-3--3--3--0--|
C|----0--0-0--0--0-0--0-0--0--0--0--|--5--5--5--5-0--0-0--0--0--0--|
G|----0--0-0--0--0-0--0-0--0--0--0--|--5--5--5--5-0--0-0--0--0--0--|
C|----2--2-2--2--2-0--0-0--0--2--4--|--5--5--5--5-4--4-4--4--4--0--|
G|----x--x-x--x--x-0--0-0--0--x--x--|--5--5--5--5-x--x-x--x--x--0--|
C|----2--2-2--2--2-0--0-0--0--2--4--|--5--5--5--5-4--4-4--4--4--0--|


      G7sus4/D         C                  G7sus4/D C/E
                       nh
e|----1--1-1--1--1--|--12--------------------0--1--3--|
C|----0--0-0--0--0--|--12--------------------0--0--0--|
G|----0--0-0--0--0--|--12--------------------0--0--0--|
C|----2--2-2--2--2--|--12--------------------0--2--4--|
G|----x--x-x--x--x--|--12--------------------0--x--x--|
C|----2--2-2--2--2--|--12--------------------0--2--4--|


      F         C/E            C     G7sus4/D     C    G7sus4/D C/E   

e|----5--5--5-5-3-3--3--3-3--3-0--|--1--1-1--1--1-0--0-0--0--1--3--|
C|----5--5--5-5-0-0--0--0-0--0-0--|--0--0-0--0--0-0--0-0--0--0--0--|
G|----5--5--5-5-0-0--0--0-0--0-0--|--0--0-0--0--0-0--0-0--0--0--0--|
C|----5--5--5-5-4-4--4--4-4--4-0--|--2--2-2--2--2-0--0-0--0--2--4--|
G|----5--5--5-5-x-x--x--x-x--x-0--|--x--x-x--x--x-0--0-0--0--x--x--|
C|----5--5--5-5-4-4--4--4-4--4-0--|--2--2-2--2--2-0--0-0--0--2--4--|


      F         C/E            C     G7sus4/D

e|----5--5--5-5-3-3--3--3-3--3-0--|--1--1-1--1--1--|
C|----5--5--5-5-0-0--0--0-0--0-0--|--0--0-0--0--0--|
G|----5--5--5-5-0-0--0--0-0--0-0--|--0--0-0--0--0--|
C|----5--5--5-5-4-4--4--4-4--4-0--|--2--2-2--2--2--|
G|----5--5--5-5-x-x--x--x-x--x-0--|--x--x-x--x--x--|
C|----5--5--5-5-4-4--4--4-4--4-0--|--2--2-2--2--2--|


      C                  G7sus4/D C/E   G  G7
      nh
e|----12--------------------0--1--3--|--7--7--7-7--7-7--7--7-7--|
C|----12--------------------0--0--0--|--7--7--7-7--7-7--7--7-7--|
G|----12--------------------0--0--0--|--7--10-1010-1010-10-1010-|
C|----12--------------------0--2--4--|--7--7--7-7--7-7--7--7-7--|
G|----12--------------------0--x--x--|--7--7--7-7--7-7--7--7-7--|
C|----12--------------------0--2--4--|--7--7--7-7--7-7--7--7-7--|


      C   C6sus4 C C6sus4 C            G7
                               >
e|----0--0--1-0-1-0--0--0--0-0-0-0--|--7--7-7--7--7-7-(7)-7-7-7--7-7-7-7--|
C|----0--0--0-0-0-0--0--0--0-0-0-0--|--7--7-7--7--7-7-(7)-7-7-7--7-7-7-7--|
G|----0--0--2-0-2-0--0--0--0-0-0-0--|--10-1010-10-1010(10)101010-10101010-|
C|----0--0--0-0-0-0--0--0--0-0-0-0--|--7--7-7--7--7-7-(7)-7-7-7--7-7-7-7--|
G|----0--0--0-0-0-0--0--0--0-0-0-0--|--7--7-7--7--7-7-(7)-7-7-7--7-7-7-7--|
C|----0--0--0-0-0-0--0--0--0-0-0-0--|--7--7-7--7--7-7-(7)-7-7-7--7-7-7-7--|


      C                   G7sus4/D C/E     F          Fadd2              C

e|----0--0-0--0--0-0--0--0-1-(1)-1-3-3--|--5--5-5--5--5-5--5--5-5--5-5-x-1--|
C|----0--0-0--0--0-0--0--0-0-(0)-0-0-0--|--5--5-5--5--7-7--7--7-7--7-7-x-0--|
G|----0--0-0--0--0-0--0--0-0-(0)-0-0-0--|--5--5-5--5--5-5--5--5-5--5-5-x-0--|
C|----0--0-0--0--0-0--0--0-2-(2)-2-4-4--|--5--5-5--5--5-5--5--5-5--5-5-x-2--|
G|----0--0-0--0--0-0--0--0-x-(x)-x-x-x--|--5--5-5--5--5-5--5--5-5--5-5-x-x--|
C|----0--0-0--0--0-0--0--0-2-(2)-2-4-4--|--5--5-5--5--5-5--5--5-5--5-5-x-2--|


      G                                    C                G7sus4/D    C/E

e|----7--7-7--7--7-7-(7)--7-7--7-7-7-7--|--0--0-0--0--0--0--1-1-(1)-1-1-3-3--|
C|----7--7-7--7--7-7-(7)--7-7--7-7-7-7--|--0--0-0--0--0--0--0-0-(0)-0-0-0-0--|
G|----7--7-7--7--7-7-(7)--7-7--7-7-7-7--|--0--0-0--0--0--0--0-0-(0)-0-0-0-0--|
C|----7--7-7--7--7-7-(7)--7-7--7-7-7-7--|--0--0-0--0--0--0--2-2-(2)-2-2-4-4--|
G|----7--7-7--7--7-7-(7)--7-7--7-7-7-7--|--0--0-0--0--0--0--x-x-(x)-x-x-x-x--|
C|----7--7-7--7--7-7-(7)--7-7--7-7-7-7--|--0--0-0--0--0--0--2-2-(2)-2-2-4-4--|


      F                  C/E G7sus4/D  C

e|----5--5--5--5-5--5--5-5--3--1-1--|--0--0-0--0--0-0--0--0-0--0-0-0-0--|
C|----5--5--5--5-5--5--5-5--0--0-0--|--0--0-0--0--0-0--0--0-0--0-0-0-0--|
G|----5--5--5--5-5--5--5-5--0--0-0--|--0--0-0--0--0-0--0--0-0--0-0-0-0--|
C|----5--5--5--5-5--5--5-5--4--2-2--|--0--0-0--0--0-0--0--0-0--0-0-0-0--|
G|----5--5--5--5-5--5--5-5--x--x-x--|--0--0-0--0--0-0--0--0-0--0-0-0-0--|
C|----5--5--5--5-5--5--5-5--4--2-2--|--0--0-0--0--0-0--0--0-0--0-0-0-0--|


      G                           C                  G7sus4/D C/E
                                  nh
e|----7--7-7--7--7-7--7-7-7-7--|--12--------------------0--1--3--|
C|----7--7-7--7--7-7--7-7-7-7--|--12--------------------0--0--0--|
G|----7--7-7--7--7-7--7-7-7-7--|--12--------------------0--0--0--|
C|----7--7-7--7--7-7--7-7-7-7--|--12--------------------0--2--4--|
G|----7--7-7--7--7-7--7-7-7-7--|--12--------------------0--x--x--|
C|----7--7-7--7--7-7--7-7-7-7--|--12--------------------0--2--4--|


      F         C/E            C     G7sus4/D     C    G7sus4/D C/E   

e|----5--5--5-5-3-3--3--3-3--3-0--|--1--1-1--1--1-0--0-0--0--1--3--|
C|----5--5--5-5-0-0--0--0-0--0-0--|--0--0-0--0--0-0--0-0--0--0--0--|
G|----5--5--5-5-0-0--0--0-0--0-0--|--0--0-0--0--0-0--0-0--0--0--0--|
C|----5--5--5-5-4-4--4--4-4--4-0--|--2--2-2--2--2-0--0-0--0--2--4--|
G|----5--5--5-5-x-x--x--x-x--x-0--|--x--x-x--x--x-0--0-0--0--x--x--|
C|----5--5--5-5-4-4--4--4-4--4-0--|--2--2-2--2--2-0--0-0--0--2--4--|


      F          C/E           C     G7sus4/D           

e|----5--5--5--5-3--3-3--3--3--0--|--1--1-1--1--1--|
C|----5--5--5--5-0--0-0--0--0--0--|--0--0-0--0--0--|
G|----5--5--5--5-0--0-0--0--0--0--|--0--0-0--0--0--|
C|----5--5--5--5-4--4-4--4--4--0--|--2--2-2--2--2--|
G|----5--5--5--5-x--x-x--x--x--0--|--x--x-x--x--x--|
C|----5--5--5--5-4--4-4--4--4--0--|--2--2-2--2--2--|


      C
      nh
e|----12-----------------------------|
C|----12-----------------------------|
G|----12-----------------------------|
C|----12-----------------------------|
G|----12-----------------------------|
C|----12-----------------------------|

    Intro
      C(XII)                        C7/9sus4
      >          >          >           >             >          >   >          >
e|----12--12-12--12--12-12--12--12--10--10--|--10-10--10--10-10--10--10--10-10--10--10--|
C|----12--12-12--12--12-12--12--12--10--10--|--10-10--10--10-10--10--10--10-10--10--10--|
G|----12--12-12--12--12-12--12--12--10--10--|--10-10--10--10-10--10--10--10-10--10--10--|
C|----0---0--0---0---0--0---0---0---0---0---|--0--0---0---0--0---0---0---0--0---0---0---|
G|----0---0--0---0---0--0---0---0---0---0---|--0--0---0---0--0---0---0---0--0---0---0---|
C|----0---0--0---0---0--0---0---0---0---0---|--0--0---0---0--0---0---0---0--0---0---0---|


      Cmaj9                   C6sus4
      >       >       >          >          >       >  >       >
e|----7-7--7--7-7--7--7--7-7--5--5--|--5-5--5--5-5--5--5--5-5--5--5--|
C|----7-7--7--7-7--7--7--7-7--5--5--|--5-5--5--5-5--5--5--5-5--5--5--|
G|----7-7--7--7-7--7--7--7-7--5--5--|--5-5--5--5-5--5--5--5-5--5--5--|
C|----0-0--0--0-0--0--0--0-0--0--0--|--0-0--0--0-0--0--0--0-0--0--0--|
G|----0-0--0--0-0--0--0--0-0--0--0--|--0-0--0--0-0--0--0--0-0--0--0--|
C|----0-0--0--0-0--0--0--0-0--0--0--|--0-0--0--0-0--0--0--0-0--0--0--|


      Eb                      C  F
      >       >       >       >  >          >  >       >
e|----3--3-3--3--3-3--3--3-3--0--5--|--5-5--5--5--5-5--5--5-5--5--x-x--|
C|----3--3-3--3--3-3--3--3-3--0--5--|--5-5--5--5--5-5--5--5-5--5--x-x--|
G|----3--3-3--3--3-3--3--3-3--0--5--|--5-5--5--5--5-5--5--5-5--5--x-x--|
C|----3--3-3--3--3-3--3--3-3--0--5--|--5-5--5--5--5-5--5--5-5--5--x-x--|
G|----3--3-3--3--3-3--3--3-3--0--5--|--5-5--5--5--5-5--5--5-5--5--x-x--|
C|----3--3-3--3--3-3--3--3-3--0--5--|--5-5--5--5--5-5--5--5-5--5--x-x--|


      Eb                         C  D
      >        >        >        >  >                >        >        >
e|----3-3-3-3--3-3-3-3--3-3-3-3--0--2-2--|--2-2-2-2--2-2-2-2--2-2-2-2--2-2-2-2--|
C|----3-3-3-3--3-3-3-3--3-3-3-3--0--2-2--|--2-2-2-2--2-2-2-2--2-2-2-2--2-2-2-2--|
G|----3-3-3-3--3-3-3-3--3-3-3-3--0--2-2--|--2-2-2-2--2-2-2-2--2-2-2-2--2-2-2-2--|
C|----3-3-3-3--3-3-3-3--3-3-3-3--0--2-2--|--2-2-2-2--2-2-2-2--2-2-2-2--2-2-2-2--|
G|----3-3-3-3--3-3-3-3--3-3-3-3--0--2-2--|--2-2-2-2--2-2-2-2--2-2-2-2--2-2-2-2--|
C|----3-3-3-3--3-3-3-3--3-3-3-3--0--2-2--|--2-2-2-2--2-2-2-2--2-2-2-2--2-2-2-2--|

    Chorus
      Eb                                     F
      >        >        >                    >        >        >        >
e|----3-3-3-3--3-3-3-3--3-3-3-3--3-3-x-x--|--5-5-5-5--5-5-5-5--5-5-5-5--5-5-5-5--|
C|----3-3-3-3--3-3-3-3--3-3-3-3--3-3-x-x--|--5-5-5-5--5-5-5-5--5-5-5-5--5-5-5-5--|
G|----3-3-3-3--3-3-3-3--3-3-3-3--3-3-x-x--|--5-5-5-5--5-5-5-5--5-5-5-5--5-5-5-5--|
C|----3-3-3-3--3-3-3-3--3-3-3-3--3-3-x-x--|--5-5-5-5--5-5-5-5--5-5-5-5--5-5-5-5--|
G|----3-3-3-3--3-3-3-3--3-3-3-3--3-3-x-x--|--5-5-5-5--5-5-5-5--5-5-5-5--5-5-5-5--|
C|----3-3-3-3--3-3-3-3--3-3-3-3--3-3-x-x--|--5-5-5-5--5-5-5-5--5-5-5-5--5-5-5-5--|


      Eb                         D
      >        >        >           >          >  >       >       >
e|----3-3-3-3--3-3-3-3--3-3-3-3--2--2--|--2-2--2--2--2-2--2--2-2--2--2-2--|
C|----3-3-3-3--3-3-3-3--3-3-3-3--2--2--|--2-2--2--2--2-2--2--2-2--2--2-2--|
G|----3-3-3-3--3-3-3-3--3-3-3-3--2--2--|--2-2--2--2--2-2--2--2-2--2--2-2--|
C|----3-3-3-3--3-3-3-3--3-3-3-3--2--2--|--2-2--2--2--2-2--2--2-2--2--2-2--|
G|----3-3-3-3--3-3-3-3--3-3-3-3--2--2--|--2-2--2--2--2-2--2--2-2--2--2-2--|
C|----3-3-3-3--3-3-3-3--3-3-3-3--2--2--|--2-2--2--2--2-2--2--2-2--2--2-2--|


      Eb                         F
      >       >       >       >  >              >        >       >
e|----3--3-3--3--3-3--3--3-3--3--5--|-(5)-5--5--5-5-5-5--5--5-5--5--5-5--|
C|----3--3-3--3--3-3--3--3-3--3--5--|-(5)-5--5--5-5-5-5--5--5-5--5--5-5--|
G|----3--3-3--3--3-3--3--3-3--3--5--|-(5)-5--5--5-5-5-5--5--5-5--5--5-5--|
C|----3--3-3--3--3-3--3--3-3--3--5--|-(5)-5--5--5-5-5-5--5--5-5--5--5-5--|
G|----3--3-3--3--3-3--3--3-3--3--5--|-(5)-5--5--5-5-5-5--5--5-5--5--5-5--|
C|----3--3-3--3--3-3--3--3-3--3--5--|-(5)-5--5--5-5-5-5--5--5-5--5--5-5--|


      Eb                         D
      >       >       >       >  >              >       >       >
e|----3--3-3--3--3-3--3--3-3--3--2--|-(2)-2--2--2--2-2--2--2-2--2--2-2--|
C|----3--3-3--3--3-3--3--3-3--3--2--|-(2)-2--2--2--2-2--2--2-2--2--2-2--|
G|----3--3-3--3--3-3--3--3-3--3--2--|-(2)-2--2--2--2-2--2--2-2--2--2-2--|
C|----3--3-3--3--3-3--3--3-3--3--2--|-(2)-2--2--2--2-2--2--2-2--2--2-2--|
G|----3--3-3--3--3-3--3--3-3--3--2--|-(2)-2--2--2--2-2--2--2-2--2--2-2--|
C|----3--3-3--3--3-3--3--3-3--3--2--|-(2)-2--2--2--2-2--2--2-2--2--2-2--|


      G                          C
      >       >       >       >          >       >       >       >
e|----7--7-7--7--7-7--7--7-7--7--0-0--|--0--0-0--0--0-0--0--0-0--0--0-0--|
C|----7--7-7--7--7-7--7--7-7--7--0-0--|--0--0-0--0--0-0--0--0-0--0--0-0--|
G|----7--7-7--7--7-7--7--7-7--7--0-0--|--0--0-0--0--0-0--0--0-0--0--0-0--|
C|----7--7-7--7--7-7--7--7-7--7--0-0--|--0--0-0--0--0-0--0--0-0--0--0-0--|
G|----7--7-7--7--7-7--7--7-7--7--0-0--|--0--0-0--0--0-0--0--0-0--0--0-0--|
C|----7--7-7--7--7-7--7--7-7--7--0-0--|--0--0-0--0--0-0--0--0-0--0--0-0--|


      Cdim7           G7/C       C     
      >       >       >       >             >           >
e|----2--2-2--2--2-2--1--1-1--1--0-0--|--0--0--0-0-0-0--0--0-0--0-0-0-0--|
C|----x--x-x--x--x-x--2--2-2--2--0-0--|--0--0--0-0-0-0--0--0-0--0-0-0-0--|
G|----2--2-2--2--2-2--0--0-0--0--0-0--|--0--0--0-0-0-0--0--0-0--0-0-0-0--|
C|----0--0-0--0--0-0--0--0-0--0--0-0--|--0--0--0-0-0-0--0--0-0--0-0-0-0--|
G|----0--0-0--0--0-0--0--0-0--0--0-0--|--0--0--0-0-0-0--0--0-0--0-0-0-0--|
C|----0--0-0--0--0-0--0--0-0--0--0-0--|--0--0--0-0-0-0--0--0-0--0-0-0-0--|


      Cdim7           G9/C       C5            G9/C C          G7/C C
      >       >       >       >          >       >       >       >
e|----2--2-2--2--2-2--5--5-5--5--3-3--|--3--3-3--5--0-0--0--0-0--1--0-0--|
C|----x--x-x--x--x-x--5--5-5--5--0-0--|--0--0-0--5--0-0--0--0-0--2--0-0--|
G|----2--2-2--2--2-2--0--0-0--0--0-0--|--0--0-0--0--0-0--0--0-0--0--0-0--|
C|----0--0-0--0--0-0--0--0-0--0--0-0--|--0--0-0--0--0-0--0--0-0--0--0-0--|
G|----0--0-0--0--0-0--0--0-0--0--0-0--|--0--0-0--0--0-0--0--0-0--0--0-0--|
C|----0--0-0--0--0-0--0--0-0--0--0-0--|--0--0-0--0--0-0--0--0-0--0--0-0--|

    Verse 3
      Cdim7           G7/C       C             G7/C C          G7/C C
      >       >       >       >          >       >       >       >
e|----2--2-2--2--2-2--1--1-1--1--0-0--|--0--0-0--1--0-0--0--0-0--1--0-0--|
C|----x--x-x--x--x-x--2--2-2--2--0-0--|--0--0-0--2--0-0--0--0-0--2--0-0--|
G|----2--2-2--2--2-2--0--0-0--0--0-0--|--0--0-0--0--0-0--0--0-0--0--0-0--|
C|----0--0-0--0--0-0--0--0-0--0--0-0--|--0--0-0--0--0-0--0--0-0--0--0-0--|
G|----0--0-0--0--0-0--0--0-0--0--0-0--|--0--0-0--0--0-0--0--0-0--0--0-0--|
C|----0--0-0--0--0-0--0--0-0--0--0-0--|--0--0-0--0--0-0--0--0-0--0--0-0--|


      Cdim7           G9/C       C
      >       >       >       >          >       >       >       >
e|----2--2-2--2--2-2--5--5-5--5--0-0--|--0--0-0--0--0-0--0--0-0--0--0-0--|
C|----x--x-x--x--x-x--5--5-5--5--0-0--|--0--0-0--0--0-0--0--0-0--0--0-0--|
G|----2--2-2--2--2-2--0--0-0--0--0-0--|--0--0-0--0--0-0--0--0-0--0--0-0--|
C|----0--0-0--0--0-0--0--0-0--0--0-0--|--0--0-0--0--0-0--0--0-0--0--0-0--|
G|----0--0-0--0--0-0--0--0-0--0--0-0--|--0--0-0--0--0-0--0--0-0--0--0-0--|
C|----0--0-0--0--0-0--0--0-0--0--0-0--|--0--0-0--0--0-0--0--0-0--0--0-0--|


      Cdim7           G7/C       C             G7/C C          G7/C C
      >       >       >       >          >       >       >       >
e|----2--2-2--2--2-2--1--1-1--1--0-0--|--0--0-0--1--0-0--0--0-0--1--0-0--|
C|----x--x-x--x--x-x--2--2-2--2--0-0--|--0--0-0--2--0-0--0--0-0--2--0-0--|
G|----2--2-2--2--2-2--0--0-0--0--0-0--|--0--0-0--0--0-0--0--0-0--0--0-0--|
C|----0--0-0--0--0-0--0--0-0--0--0-0--|--0--0-0--0--0-0--0--0-0--0--0-0--|
G|----0--0-0--0--0-0--0--0-0--0--0-0--|--0--0-0--0--0-0--0--0-0--0--0-0--|
C|----0--0-0--0--0-0--0--0-0--0--0-0--|--0--0-0--0--0-0--0--0-0--0--0-0--|


      Cdim7           G9/C       C
      >       >       >       >          >       >       >       >
e|----2--2-2--2--2-2--5--5-5--5--0-0--|--0--0-0--0--0-0--0--0-0--0--0-0--|
C|----x--x-x--x--x-x--5--5-5--5--0-0--|--0--0-0--0--0-0--0--0-0--0--0-0--|
G|----2--2-2--2--2-2--0--0-0--0--0-0--|--0--0-0--0--0-0--0--0-0--0--0-0--|
C|----0--0-0--0--0-0--0--0-0--0--0-0--|--0--0-0--0--0-0--0--0-0--0--0-0--|
G|----0--0-0--0--0-0--0--0-0--0--0-0--|--0--0-0--0--0-0--0--0-0--0--0-0--|
C|----0--0-0--0--0-0--0--0-0--0--0-0--|--0--0-0--0--0-0--0--0-0--0--0-0--|


      Cdim7           G7/C       C             G7/C C          G7/C C
      >       >       >       >          >       >       >       >
e|----2--2-2--2--2-2--1--1-1--1--0-0--|--0--0-0--1--0-0--0--0-0--1--0-0--|
C|----x--x-x--x--x-x--2--2-2--2--0-0--|--0--0-0--2--0-0--0--0-0--2--0-0--|
G|----2--2-2--2--2-2--0--0-0--0--0-0--|--0--0-0--0--0-0--0--0-0--0--0-0--|
C|----0--0-0--0--0-0--0--0-0--0--0-0--|--0--0-0--0--0-0--0--0-0--0--0-0--|
G|----0--0-0--0--0-0--0--0-0--0--0-0--|--0--0-0--0--0-0--0--0-0--0--0-0--|
C|----0--0-0--0--0-0--0--0-0--0--0-0--|--0--0-0--0--0-0--0--0-0--0--0-0--|
 |    Guitar 2
e|------------------------------------|----------------------------------|
B|------------------------------------|----------------------------------|
G|----8---8---7---5----7-----------5--|-(5)-----------5------------------|
D|-------------------------5---7------|-------5---7-------7---5----------|
A|------------------------------------|---------------------------7--\5--|
E|------------------------------------|----------------------------------|


      Cdim7           G9/C       C
      >       >       >       >          >       >       >       >
e|----2--2-2--2--2-2--5--5-5--5--0-0--|--0--0-0--0--0-0--0--0-0--0--0-0--|
C|----x--x-x--x--x-x--5--5-5--5--0-0--|--0--0-0--0--0-0--0--0-0--0--0-0--|
G|----2--2-2--2--2-2--0--0-0--0--0-0--|--0--0-0--0--0-0--0--0-0--0--0-0--|
C|----0--0-0--0--0-0--0--0-0--0--0-0--|--0--0-0--0--0-0--0--0-0--0--0-0--|
G|----0--0-0--0--0-0--0--0-0--0--0-0--|--0--0-0--0--0-0--0--0-0--0--0-0--|
C|----0--0-0--0--0-0--0--0-0--0--0-0--|--0--0-0--0--0-0--0--0-0--0--0-0--|
 |
e|------------------------------------|----------------------------------|
B|------------------------------------|----------------------------------|
G|----8---8---7---5----7-----------5--|-(5)-----------5------------------|
D|-------------------------5---7------|-------5---7-------7---5----------|
A|------------------------------------|---------------------------7--\5--|
E|------------------------------------|----------------------------------|


      Cdim7           G7/C       C             G7/C C          G7/C C
      >       >       >       >          >       >       >       >
e|----2--2-2--2--2-2--1--1-1--1--0-0--|--0--0-0--1--0-0--0--0-0--1--0-0--|
C|----x--x-x--x--x-x--2--2-2--2--0-0--|--0--0-0--2--0-0--0--0-0--2--0-0--|
G|----2--2-2--2--2-2--0--0-0--0--0-0--|--0--0-0--0--0-0--0--0-0--0--0-0--|
C|----0--0-0--0--0-0--0--0-0--0--0-0--|--0--0-0--0--0-0--0--0-0--0--0-0--|
G|----0--0-0--0--0-0--0--0-0--0--0-0--|--0--0-0--0--0-0--0--0-0--0--0-0--|
C|----0--0-0--0--0-0--0--0-0--0--0-0--|--0--0-0--0--0-0--0--0-0--0--0-0--|
 |
e|------------------------------------|----------------------------------|
B|------------------------------------|----------------------------------|
G|----8---8---7---5----7-----------5--|-(5)-----------5------------------|
D|-------------------------5---7------|-------5---7-------7---5----------|
A|------------------------------------|---------------------------7--\5--|
E|------------------------------------|----------------------------------|


      Cdim7           G9/C       C
      >       >       >       >          >       >       >       >
e|----2--2-2--2--2-2--5--5-5--5--0-0--|--0--0-0--0--0-0--0--0-0--0--0-0--|
C|----x--x-x--x--x-x--5--5-5--5--0-0--|--0--0-0--0--0-0--0--0-0--0--0-0--|
G|----2--2-2--2--2-2--0--0-0--0--0-0--|--0--0-0--0--0-0--0--0-0--0--0-0--|
C|----0--0-0--0--0-0--0--0-0--0--0-0--|--0--0-0--0--0-0--0--0-0--0--0-0--|
G|----0--0-0--0--0-0--0--0-0--0--0-0--|--0--0-0--0--0-0--0--0-0--0--0-0--|
C|----0--0-0--0--0-0--0--0-0--0--0-0--|--0--0-0--0--0-0--0--0-0--0--0-0--|
 |
e|------------------------------------|----------------------------------|
B|------------------------------------|----------------------------------|
G|----8---8---7---5----7-----------5--|-(5)-----------5------------------|
D|-------------------------5---7------|-------5---7-------7---5----------|
A|------------------------------------|---------------------------7--\5--|
E|------------------------------------|----------------------------------|

    Chorus
      Eb                                     F
      >        >        >                    >        >        >        >
e|----3-3-3-3--3-3-3-3--3-3-3-3--3-3-x-x--|--5-5-5-5--5-5-5-5--5-5-5-5--5-5-5-5--|
C|----3-3-3-3--3-3-3-3--3-3-3-3--3-3-x-x--|--5-5-5-5--5-5-5-5--5-5-5-5--5-5-5-5--|
G|----3-3-3-3--3-3-3-3--3-3-3-3--3-3-x-x--|--5-5-5-5--5-5-5-5--5-5-5-5--5-5-5-5--|
C|----3-3-3-3--3-3-3-3--3-3-3-3--3-3-x-x--|--5-5-5-5--5-5-5-5--5-5-5-5--5-5-5-5--|
G|----3-3-3-3--3-3-3-3--3-3-3-3--3-3-x-x--|--5-5-5-5--5-5-5-5--5-5-5-5--5-5-5-5--|
C|----3-3-3-3--3-3-3-3--3-3-3-3--3-3-x-x--|--5-5-5-5--5-5-5-5--5-5-5-5--5-5-5-5--|
 |
e|----------------------------------------|--------------------------------------|
B|----------------------------------------|--------------------------------------|
G|-------8----8----5----7----5---------5--|-(5)----------------------------------|
D|--------------------------------7-------|------5----7----5--------5----7----5--|
A|----------------------------------------|--------------------7-----------------|
E|----------------------------------------|--------------------------------------|


      Eb                         D
      >        >        >           >          >  >       >       >
e|----3-3-3-3--3-3-3-3--3-3-3-3--2--2--|--2-2--2--2--2-2--2--2-2--2--2-2--|
C|----3-3-3-3--3-3-3-3--3-3-3-3--2--2--|--2-2--2--2--2-2--2--2-2--2--2-2--|
G|----3-3-3-3--3-3-3-3--3-3-3-3--2--2--|--2-2--2--2--2-2--2--2-2--2--2-2--|
C|----3-3-3-3--3-3-3-3--3-3-3-3--2--2--|--2-2--2--2--2-2--2--2-2--2--2-2--|
G|----3-3-3-3--3-3-3-3--3-3-3-3--2--2--|--2-2--2--2--2-2--2--2-2--2--2-2--|
C|----3-3-3-3--3-3-3-3--3-3-3-3--2--2--|--2-2--2--2--2-2--2--2-2--2--2-2--|
 |
e|-------------------------------------|----------------------------------|
B|-------------------------------------|----------------------------------|
G|----8---8---8---5-----7-------5------|--5-------5--------7--------------|
D|--------------------------7-------7--|------7----------------7---4------|
A|-------------------------------------|--------------7----------------5--|
E|-------------------------------------|----------------------------------|


      Eb                         F
      >       >       >       >  >              >        >       >
e|----3--3-3--3--3-3--3--3-3--3--5--|-(5)-5--5--5-5-5-5--5--5-5--5--5-5--|
C|----3--3-3--3--3-3--3--3-3--3--5--|-(5)-5--5--5-5-5-5--5--5-5--5--5-5--|
G|----3--3-3--3--3-3--3--3-3--3--5--|-(5)-5--5--5-5-5-5--5--5-5--5--5-5--|
C|----3--3-3--3--3-3--3--3-3--3--5--|-(5)-5--5--5-5-5-5--5--5-5--5--5-5--|
G|----3--3-3--3--3-3--3--3-3--3--5--|-(5)-5--5--5-5-5-5--5--5-5--5--5-5--|
C|----3--3-3--3--3-3--3--3-3--3--5--|-(5)-5--5--5-5-5-5--5--5-5--5--5-5--|


      Eb                         D
      >       >       >       >  >              >       >       >
e|----3--3-3--3--3-3--3--3-3--3--2--|-(2)-2--2--2--2-2--2--2-2--2--2-2--|
C|----3--3-3--3--3-3--3--3-3--3--2--|-(2)-2--2--2--2-2--2--2-2--2--2-2--|
G|----3--3-3--3--3-3--3--3-3--3--2--|-(2)-2--2--2--2-2--2--2-2--2--2-2--|
C|----3--3-3--3--3-3--3--3-3--3--2--|-(2)-2--2--2--2-2--2--2-2--2--2-2--|
G|----3--3-3--3--3-3--3--3-3--3--2--|-(2)-2--2--2--2-2--2--2-2--2--2-2--|
C|----3--3-3--3--3-3--3--3-3--3--2--|-(2)-2--2--2--2-2--2--2-2--2--2-2--|


      G                            C
      >       >       >       >          >       >       >       >
e|----7--7-7--7--7-7--7--7-7--7--0-0--|--0--0-0--0--0-0--0--0-0--0--0-0--|
C|----7--7-7--7--7-7--7--7-7--7--0-0--|--0--0-0--0--0-0--0--0-0--0--0-0--|
G|----7--7-7--7--7-7--7--7-7--7--0-0--|--0--0-0--0--0-0--0--0-0--0--0-0--|
C|----7--7-7--7--7-7--7--7-7--7--0-0--|--0--0-0--0--0-0--0--0-0--0--0-0--|
G|----7--7-7--7--7-7--7--7-7--7--0-0--|--0--0-0--0--0-0--0--0-0--0--0-0--|
C|----7--7-7--7--7-7--7--7-7--7--0-0--|--0--0-0--0--0-0--0--0-0--0--0-0--|


      Cdim7           G7/C       C             G7/C C          G7/C C
      >       >       >       >          >       >       >       >
e|----2--2-2--2--2-2--1--1-1--1--0-0--|--0--0-0--1--0-0--0--0-0--1--0-0--|
C|----x--x-x--x--x-x--2--2-2--2--0-0--|--0--0-0--2--0-0--0--0-0--2--0-0--|
G|----2--2-2--2--2-2--0--0-0--0--0-0--|--0--0-0--0--0-0--0--0-0--0--0-0--|
C|----0--0-0--0--0-0--0--0-0--0--0-0--|--0--0-0--0--0-0--0--0-0--0--0-0--|
G|----0--0-0--0--0-0--0--0-0--0--0-0--|--0--0-0--0--0-0--0--0-0--0--0-0--|
C|----0--0-0--0--0-0--0--0-0--0--0-0--|--0--0-0--0--0-0--0--0-0--0--0-0--|


      Cdim7(VIII)     G9/C       C       C
      >       >       >       >          >       >       >       >
e|----8--8-8--8--8-8--5--5-5--5--0-0--|--0--0-0--0--0-0--0--0-0--0--0-0--|
C|----9--9-9--9--9-9--5--5-5--5--0-0--|--0--0-0--0--0-0--0--0-0--0--0-0--|
G|----8--8-8--8--8-8--0--0-0--0--0-0--|--0--0-0--0--0-0--0--0-0--0--0-0--|
C|----0--0-0--0--0-0--0--0-0--0--0-0--|--0--0-0--0--0-0--0--0-0--0--0-0--|
G|----0--0-0--0--0-0--0--0-0--0--0-0--|--0--0-0--0--0-0--0--0-0--0--0-0--|
C|----0--0-0--0--0-0--0--0-0--0--0-0--|--0--0-0--0--0-0--0--0-0--0--0-0--|

    Outro (begin fade)
      Cdim7           G7/C       C             G7/C C          G7/C C
      >       >       >       >          >       >       >       >
e|----2--2-2--2--2-2--1--1-1--1--0-0--|--0--0-0--1--0-0--0--0-0--1--0-0--|
C|----x--x-x--x--x-x--2--2-2--2--0-0--|--0--0-0--2--0-0--0--0-0--2--0-0--|
G|----2--2-2--2--2-2--0--0-0--0--0-0--|--0--0-0--0--0-0--0--0-0--0--0-0--|
C|----0--0-0--0--0-0--0--0-0--0--0-0--|--0--0-0--0--0-0--0--0-0--0--0-0--|
G|----0--0-0--0--0-0--0--0-0--0--0-0--|--0--0-0--0--0-0--0--0-0--0--0-0--|
C|----0--0-0--0--0-0--0--0-0--0--0-0--|--0--0-0--0--0-0--0--0-0--0--0-0--|

                                                               fade out
      Cdim7           G9/C       C
      >       >       >       >          >       >       >       >
e|----2--2-2--2--2-2--5--5-5--5--0-0--|--0--0-0--0--0-0--0--0-0--0--0-0--|
C|----x--x-x--x--x-x--5--5-5--5--0-0--|--0--0-0--0--0-0--0--0-0--0--0-0--|
G|----2--2-2--2--2-2--0--0-0--0--0-0--|--0--0-0--0--0-0--0--0-0--0--0-0--|
C|----0--0-0--0--0-0--0--0-0--0--0-0--|--0--0-0--0--0-0--0--0-0--0--0-0--|
G|----0--0-0--0--0-0--0--0-0--0--0-0--|--0--0-0--0--0-0--0--0-0--0--0-0--|
C|----0--0-0--0--0-0--0--0-0--0--0-0--|--0--0-0--0--0-0--0--0-0--0--0-0--|







Intro

| C(XII)          C7/9sus4 | C7/9sus4                 | Cmaj9             C6sus4 |

| C6sus4                   | Eb                  C  F | F                        |

| Eb                  C  D | D                        |



Chorus

Eb                         F                         
Ah ___________________________________________________

Eb                         D
_____________________________

Eb                         F                         
Ah ___________________________________________________

Eb                         D
_____________________________

G                        C
Ah ____________________________


| Cdim7       G7/C     C   | C                        | Cdim7       G9/C    C5   |

| C5    G9/C               |      



Verse 1

    G7/C C   Cdim7     G7/C  C  G7/C  C   
Why  do  we  never  get  an  answer
G7/C  C      Cdim7(VIII) G9/C    C    C
When  we're  knocking  at  the  door
         Cdim7       G7/C   C   G7/C   C
With  a  thousand  million  questions
G7/C C Cdim7       G9/C       C    C
About  hate  and  death  and  war?
                  Cdim7        G7/C C     G7/C  C
'Cause  when  we  stop  and  look  around  us
G7/C   C   Cdim7        G9/C  C    C
There  is  nothing  that  we  need
       Cdim7       G7/C C G7/C C
In  a  world  of  persecution
G7/C  C   Cdim7(VIII) G9/C  C
That  is  burning  in  its  greed


Chorus

Eb                         F                         
Ah ___________________________________________________

Eb                         D
_____________________________

Eb                         F                         
Ah ___________________________________________________

Eb                         D
_____________________________

G                        C
Ah ____________________________



| Cdim7       G7/C     C   |       G7/C  C    G7/C  C | Cdim7(VIII)    G9/C   C5 |

| C                        | 


             Cdim7    G7/C   C   G7/C   C
Why  do  we  never  get  an  answer
G7/C     C   Cdim7       G9/C   C    C
When  we're  knocking  at  the  door?
              Cdim7         G7/C    C 
Because  the  truth  is  hard  to  swallow
        G7/C  C    Cdim7        G9/C  C
That's  what  the  war  of  love  is  for


(Half time)

| C                 C6sus4 | C           C6sus4       | C           C6sus4       |

| C                        |



Bridge

    G7sus4/D  C/E  F       C/E
It's  not  the  way  that  you  say  it
      C      G7sus4/D             C
When  you  do  those  things  to  me
    G7sus4/D  C/E   F            C/E
It's  more  the  way  that  you  mean  it
      C         G7sus4/D         C(nh)
When  you  tell  me  what  will  be
    G7sus4/D        F             C/E
And  when  you  stop  and  think  about  it
C         G7sus4/D   C
You  won't  believe  it's  true
   G7sus4/D C/E     F         C/E
That  all  the  love  you've  been  giving
 C      G7sus4/D            C(nh)
Has  all  been  meant  for  you
    C6sus4 C5 G   G7                          C  C6sus4  C  C6sus4  C
I'm  looking  for  someone  to  change  my  life
              G7                         C
I'm  looking  for  a  miracle  in  my  life
         G7sus4/D C/E F  Fadd2
And  if  you  could  see
             C/E G7sus4/D C
What  it's  done  to  me
                   G
Lose  the  love  I  knew
         G7       G6  C   C(nh)
And  safely  leave  here  through
  G7sus4/D C/E  F          C/E
Between  the  silence  of  the  mountains
      C       G7sus4/D       C
And  the  crashing  of  the  sea
  G7sus4/D   C/E     F     C/E
There  lies  a  land  I  once  lived  in
       C        G7sus4/D         C
And  she's  waiting  there  for  me
  G7sus4/D C/E     F    C/E
But  in  the  gray  of  the  morning
C     G7sus4/D        C
My  mind  becomes  confused
 G7sus4/D C/E      F         C/E
Between  the  dead  and  the  sleeping
     C        G7sus4/D         C
And  the  road  that  I  must  choose
   G7sus4/D C/E C G7                          C  C6sus4  C  C6sus4  C
I'm  looking  for  someone  to  change  my  life
              G7                         C
I'm  looking  for  a  miracle  in  my  life
       G7sus4/D C/E F     Fadd2
And  if  you  could  see
                      C    G
What  it's  done  to  me
                      C
To  lose  the  love  I  knew
          G7sus4/D C/E F
It  safely  lead  me  to
                  C/E G7sus4/D  C
The  land  that  I  once  knew
                           G
A-learn  as  we  grow  old
                            C(nh)
The  secrets  of  our  soul
    G7sus4/D C/E F         C/E
It's  not  the  way  that  you  say  it
       C      G7sus4/D            C
When  you  do  those  things  to  me
 G7sus4/D    C/E     F             C/E
It's  more  the  way  you  really  mean  it
       C       G7sus4/D          C(nh)
When  you  tell  me  what  will  be



Intro

| C(XII)          C7/9sus4 | C7/9sus4                 | Cmaj9             C6sus4 |

| C6sus4                   | Eb                  C  F | F                        |

| Eb                  C  D | D                        |


Chorus

Eb                         F                         
Ah ___________________________________________________

Eb                         D
_____________________________

Eb                         F                         
Ah ___________________________________________________

Eb                         D
_____________________________

G                        C
Ah ____________________________


| Cdim7       G7/C     C   | C                        | Cdim7       G9/C    C5   |

| C5    G9/C               |      



Verse 3

    G7/C C   Cdim7     G7/C  C  G7/C  C   
Why  do  we  never  get  an  answer
G7/C  C      Cdim7(VIII) G9/C    C    C
When  we're  knocking  at  the  door
         Cdim7       G7/C   C   G7/C   C
With  a  thousand  million  questions
G7/C C Cdim7       G9/C       C    C
About  hate  and  death  and  war?
                  Cdim7        G7/C C     G7/C  C
'Cause  when  we  stop  and  look  around  us
G7/C   C   Cdim7        G9/C  C    C
There  is  nothing  that  we  need
       Cdim7       G7/C C G7/C C
In  a  world  of  persecution
G7/C  C   Cdim7(VIII) G9/C  C
That  is  burning  in  its  greed



Chorus

Eb                         F                         
Ah ___________________________________________________

Eb                         D
_____________________________

Eb                         F                         
Ah ___________________________________________________

Eb                         D
_____________________________

G                        C
Ah ____________________________



| Cdim7       G7/C     C   |       G7/C  C    G7/C  C | Cdim7(VIII)    G9/C   C5 |

| C                        |


Outro

             Cdim7     G7/C  C  G7/C  C   
Why  do  we  never  get  an  answer
G7/C  C      Cdim7(VIII) G9/C   C    C
When  we're  knocking  at  the  door?





Chords

C(XII)   C7/9sus4 Cmaj9    Csus4    Eb       C        F        D        G        Cdim7

12       10       7        5        3        0        5        2        7        2
12       10       7        5        3        0        5        2        7        x
12       10       7        5        3        0        5        2        7        2
0        0        0        0        3        0        5        2        7        0
0        0        0        0        3        0        5        2        7        0
0        0        0        0        3        0        5        2        7        0



G7/C     G9/C     C5    Cdim7(VIII) C6sus4   G7sus4/D C/E      G7       Fadd2    G6

1        5        3        8        1        1        3        7        5        7
2        5        0        9        0        0        0        7        8        7
0        0        0        8        2        0        0        10       5        9
0        0        0        0        0        2        4        7        5        7
0        0        0        0        0        x        x        7        5        7
0        0        0        0        0        2        4        7        5        7




>    accent
\    slide down
nh   natural harmonic 


=======================================================================  02 Feb 2012

            
            
Suggest correction
Creating personal tab
Creating personal tab
You can edit any tab online and save it as your Personal.

You can edit, replace or remove any tab part or add personal notes – all changes will be seen only by you.

Personal tabs can be accessed anytime from any device, even offline.
Learn more »
Give kudos to tab author, rate the tab!
1 2 3 4 5
comments
print report bad tab
1 comment total.
0 reply
Snowlab2 10 Apr 08, 2016 09:15 AM

wow, fantastic effort. Many thanks!

guest
You may want to rate the tab now too:
select rating
Wanna post a correction for this tab? Suggest correction