Oops, an error
Loading. Please wait.

Story In Your Eyes bass

version 2
version 2

Whole song

2,642 views 18 this week
3 commentsread comments
1 2 3 4 5
x 4
add to favorites
×
Save as Personal and add changes to this tab that will be seen only by you. Learn more ›
×
You can save this tab as Personal to edit and correct it or add notes. All changes will be seen only by you. Learn more »
launch autoscroll
font size
0
reset
guitar tuner
edit
Autoscroll
slow
fast
+/-
esc
set tempo
stop
Author
#----------------------------------PLEASE NOTE--------------------------------# 
#This file is the author's own work and represents their interpretation of the#
#song. You may only use this file for private study, scholarship, or research.# 
#-----------------------------------------------------------------------------# 
#-----------------------------------------------------------------------------# 
# If you like this tab, please rate it above. Thank you. 

#-----------------------------------------------------------------------------# 
Tabbed by John Shaw (jashaw@shaw-web.net) 

Bass - Tab Key
A=10th fret     C=12th Fret     E=14th Fret     G=16th Fret /=Slide up  b=bend  
B=11th Fret     D=13th Fret     F=15th Fret     H=17th Fret \=Slide down        
r=release       p=pull off

  (Rest until first run)            (Driving open A till run)    
G|--------------------------------|--------------------------------------|
D|-------------------------CEC----|-------------------------------CEC----|
A|----------------------CEF---FEC-|-00000000000000000000000000-CEF---FEC-|
E|-------------------------------C|-------------------------------------C|
All Verses (including Lead)
G|--------------------------------------------------9-------9---------|
D|------------9--------------9--------------9-----9C-C9C--9C-C9C------|
A|-CCCCCCCC-9C-C9-CCCCCCCC-9C-C9-CCCCCCCC-9C-C9-AA------AA------A-----|
E|---------AA----A--------AA----A--------AA----A----------------------|
Chorus
G|---------------------------------------------------------------------------|
D|-----------2-4-4-------4-5-5-------5-44444444-45777777-7-9-997-775-554-----|
A|--7-7-----2-----4-4---4-----5-5---5-------------------7---------------7777-|
E|-----7-0-0---------2-2---------3-3-----------------------------------------|

Ending
G|-----------------------------------------------------------------------|
D|-----------------------------------------------------------------------|
A|-0000000000000000000000000000000000000000000000000000000000000000000000|
E|-----------------------------------------------------------------------|

            
            
Suggest correction
Creating personal tab
Creating personal tab
You can edit any tab online and save it as your Personal.

You can edit, replace or remove any tab part or add personal notes – all changes will be seen only by you.

Personal tabs can be accessed anytime from any device, even offline.
Learn more »
comments
print report bad tab
3 comments total.
0 reply
swave75 382 Jul 14, 2012 02:36 PM

Great tab! Love it!

0 reply
ayreon77 21,833 Sep 05, 2016 04:31 PM

wow this is like morse code, well confusing

0 reply
dandhjohn 1,058 Sep 06, 2016 10:16 PM

Sorry, the letters extend the numbers starting 0-9 followed by A-H otherwise the tab gets really long.

guest
You may want to rate the tab now too:
select rating
Wanna post a correction for this tab? Suggest correction