Oops, an error
Loading. Please wait.

Pilot To Base tab

722 views 1 this week
no commentswrite comment
1 2 3 4 5
3 more votes to show rating
add to favorites
×
Save as Personal and add changes to this tab that will be seen only by you. Learn more ›
×
You can save this tab as Personal to edit and correct it or add notes. All changes will be seen only by you. Learn more »
launch autoscroll
font size
0
reset
how to read this tab
guitar tuner
edit
Autoscroll
slow
fast
+/-
esc
set tempo
stop
Band: The Morning Of
Song: Pilot To Base
Album: The World As We Know It
Tabbed By: Matt Florio; myspace.com/mattflorio2
Email: Shempashland@yahoo.com

This is a song by one of my favorite bands out there right now!
There are two versions of this song and they have the same chords and minor differences. 
different lineups and such... you can play along with either version.
This band is one of the next best things. This is a simple song and I'm
sure its 100% correct. Enjoy!

Tuning: Drop D

Note: this chord 770650 can also be 777700


Intro
Part 1
e|-------5------5------5--------|
B|-----3--3---3--3---3--3-------|
G|---6------6------6------------|
D|------------------------------|
A|------------------------------|
D|------------------------------|

then this part
Part 2
e|--------------------------------------------|
B|---------------------------------55555555---|
G|---77777777--77777777--77777777--66666666---|
D|---77777777--77777777--00000000--00000000---|
A|---55555555--44444444--99999999--77777777---|
D|---55555555--44444444--99999999--77777777---|

then before the verse comes in
e|------------|
B|------------|
G|---777-777--|
D|---777-777--|
A|---555-555--|
D|---555-555--|

Verse             *end on this chord
e|---0---0---0---|--------|
B|---0---5---0---|--------|
G|---7---6---7---|----7---|
D|---7---0---0---|----7---|
A|---5---7---9---|----5---|
D|---5---7---9---|--------|
"Pilot to base..." "will last.."

Chorus
e|---0000--0000--00000000----|
B|---0000--5555--00000000----|
G|---7777--6666--77777777----|
D|---0000--0000--77777777----|
A|---9999--7777--55555555----|
D|---9999--7777--55555555----|
"And wont it be a beautiful..."

e|---0000--0000--000-0~-000-0~--0000--0000-----------------------|
B|---0000--5555--000-0~-000-0~--0000--5555-----------------------|
G|---7777--6666--777-7~-777-7~--7777--6666-----------------------|
D|---0000--0000--777-7~-777-7~--0000--0000--555-0~-555-0~---000--|
A|---9999--7777--555-5~-555-5~--9999--7777--555-0~-555-0~---000--|
D|---9999--7777--555-5~-555-5~--9999--7777--555-0~-555-0~---000--|
PM               ...    ...                 ...    ...
"knowing im in sight..."

Verse 2
*here are the chords..
play along w/ song.. both versions are different
e|---0---0---0--|
B|---0---5---0--|
G|---7---6---7--|
D|---0---0---7--|
A|---9---7---5--|
D|---9---7---5--|
"when they find the black box..."

Bridge
e|---0~---0~---0~---0~---|
B|---0~---5~---0~---5~---|
G|---7~---6~---7~---6~---|
D|---7~---0~---0~---0~---|
A|---5~---7~---9~---7~---|
D|---5~---7~---9~---7~---|
"...you used to command this flight..."

Breakdown
e|-------------------------------|
B|---------55-55-----------------|
G|---77-77-66-66-777-7~-777-7~---|
D|---00-00-00-00-777-7~-777-7~---|
A|---99-99-77-77-555-5~-555-5~---|
D|---99-99-77-77-555-5~-555-5~---|

then play Part 2 of the Intro
then play Part 1 of the Intro
then play the Chorus

Outro
e|--00-00--00-00-0~---|
B|--00-00--55-55-0~---|
G|--77-77--66-66-7~---|
D|--00-00--00-00-0~---|
A|--99-99--77-77-9~---|
D|--99-99--77-77-9~---|

            
            
Suggest correction
Creating personal tab
Creating personal tab
You can edit any tab online and save it as your Personal.

You can edit, replace or remove any tab part or add personal notes – all changes will be seen only by you.

Personal tabs can be accessed anytime from any device, even offline.
Learn more »
Give kudos to tab author, rate the tab!
1 2 3 4 5
comments
print report bad tab
guest
You may want to rate the tab now too:
select rating
Wanna post a correction for this tab? Suggest correction