Oops, an error
Loading. Please wait.

Valens bass

101 views 3 this week
no commentswrite comment
1 2 3 4 5
3 more votes to show rating
add to favorites
×
Save as Personal and add changes to this tab that will be seen only by you. Learn more ›
×
You can save this tab as Personal to edit and correct it or add notes. All changes will be seen only by you. Learn more »
launch autoscroll
font size
0
reset
guitar tuner
edit
Autoscroll
slow
fast
+/-
esc
set tempo
stop
Author
Artist: The Movielife
Song: Valens
Album: The Emo Diaries No. 4 "An Ocean of Doubt"
Transcribed by: Doc Brown

Tuning: Standard
Key: E Major
Time: 6/8

INTRO:          _____________ _____________
               | 1,2,3.      | 4.          |
G|-------------|-------------|-------------|
D|-------------|-------------|-------------|
A|-------------|-------------|-------7-----|
E|-0---0---0---|-------------|-7-5-4---5-4-|
                _____________ _____________
               | 1,2,3.      | 4.          |
G|-------------|-------------|-------------|
D|-------------|-------------|-------------|
A|-------------|-------7-----|-------------|
E|-0---0---0---|-7-5-4---5-4-|-7-5-4-5-5-4-|


VERSE 1: "I took what I wanted..."

G|-------------|-------------|-------------|-------------||
D|-------------|-------------|-------------|-------------|| 4x
A|-------------|-0---0-0-0-0-|---------7---|---------5h7-||
E|-0---0-0-0---|-------------|-0---0-0-----|-0---0-0-----||
                _____________ _____________
               | 1,2,3.      | 4.          |
G|-------------|-------------|-------------|
D|-------------|-------------|-------------|
A|-------------|-------------|-------7-----|
E|-0---0---0---|-------------|-7-5-4---5-4-|


VERSE 2: "I took what I wanted..."

G|-------------|-------------|-------------|-------------|
D|-------------|-------------|-------------|-------------|
A|-------------|-0---0-0-0-0-|---------7---|---------5h7-|
E|-0---0-0-0---|-------------|-0---0-0-----|-0---0-0-----|

G|-------------|-------------|-------------|-------------|
D|-------------|-------------|-------------|-------------|
A|-------------|-0---0-2-2-2-|---------7---|---------5h7-|
E|-0---0-0-0---|-------------|-0---0-0-----|-0---0-0-----|

G|-------------|-------------|-------------|-------------|
D|-------------|-------------|-------------|-------------|
A|-------------|-0---0-0-0-0-|---------7---|---------5h7-|
E|-0---0-0-0---|-------------|-0---0-0-----|-0---0-0-----|

G|-------------|-------------|-------------|-------------|
D|-------------|-------------|-------------|-------------|
A|-------------|-0---0-2-2-2-|---------7---|---------5h7-|
E|-0---0-0-0---|-------------|-0---0-0-----|-0---0-0-----|

[BASS OUT]

G|-------------||
D|-------------|| 8x
A|-------------||
E|-------------||


BRIDGE: "We clicked..."

G|-------------|-------------|-------------|-------------||
D|-2---2-2-2-2-|---------2/4/|-6---6-6-6-6-|-7---7-9-9-9-|| 4x
A|-------------|-0---0-0-----|-------------|-------------||
E|-------------|-------------|-------------|-------------||
                _____________ _____________
               | 1,2,3.      | 4.          |
G|-------------|-------------|-------------|
D|-------------|-------------|-------------|
A|-------------|-------------|-------7-----|
E|-0---0---0---|-------------|-7-5-4---5-4-|


OUTRO: "I live in this heat..."

G|-------------|-------------||
D|-------------|-------------|| 4x
A|-------------|-2---2-2-2-2-||
E|-0---0-0-0-0-|-------------||

G|-------------||
D|-------------||
A|-------------||
E|-0-----------||


This should be pretty accurate, the bass in this song is so loud and clear. The only 
thing is the 6/8ths timing, but I've tabbed it all in the time signature exactly, just 
along and you'll be alright.

            
            
Suggest correction
Creating personal tab
Creating personal tab
You can edit any tab online and save it as your Personal.

You can edit, replace or remove any tab part or add personal notes – all changes will be seen only by you.

Personal tabs can be accessed anytime from any device, even offline.
Learn more »
Give kudos to tab author, rate the tab!
1 2 3 4 5
comments
print report bad tab
guest
You may want to rate the tab now too:
select rating
Wanna post a correction for this tab? Suggest correction