Oops, an error
Loading. Please wait.

Venezuela Is Realised bass

version 2
version 2

Whole song

78 views 1 this week
no commentswrite comment
1 2 3 4 5
2 more votes to show rating
add to favorites
×
Save as Personal and add changes to this tab that will be seen only by you. Learn more ›
×
You can save this tab as Personal to edit and correct it or add notes. All changes will be seen only by you. Learn more »
launch autoscroll
font size
0
reset
guitar tuner
edit
Autoscroll
slow
fast
+/-
esc
set tempo
stop
Author
The Murder of Rosa Luxemburg - 'Venezuela is Realised'
======================================================

tabbed by the bass playing sheep (sheep611@gmail.com)

Off the album 'Everyone is in Love and Flowers Pick Themselves'

Standard tuning, use a pick...


Play it almost funk-like: notes are clipped, played fast and with a lot of attack.
Have fun! 

Basics:

h p - hammer on/ pull off

*   - play staccatto

/ \ - slide down/up

~   - hold note


Intro:

G|-----------------5----7-----7--|
D|--------0h5h7-00---00---05/7-7-|  not sure if this is 100%, but close enough
A|-0h5---------------------------|
E|-----655-----------------------|


First part:

                                                 x3
G|----------------------------------5----7-----7--|
D|-------------------------0h5h7-00---00---05/7-7-|
A|-55---55---55---55--5---------------------------|
E|----------------------655-----------------------|


Second part:

                                      x4
G|-------------------------------------|
D|-0070-----0070-----0070-----0070-----|
A|------3-3------3-3------3-3----------|
E|---------------------------------3-3-|

Break:
                  x3
G|-----------------|------------------|        G|------4----------|------4-----------|
D|------9----------|------9-----------|        A|-----------2-4-2-|-----------2-4---4|
A|-----------7-9-7-|-----------7-9---9|  or    D|-2--2---2--------|-2--2---2---------|
E|-7--7---7--------|-7--7---7---------|        E|-----------------|------------------|
                                                little easier to change into this one
 

Third Part:   (One of the best parts, guitar fits so nicely with this)

                  x4
G|-----------------|-----------------|      G|------4----------|-----------------| 
D|------9----------|-----------------|      A|-----------2-4-2-|-----------------|
A|-----------7-9-7-|-----------------|  or  D|-2--2---2--------|-----------------|
E|-7--7---7--------|-5-5-5-5-5-5-5-5-|      E|-----------------|-5-5-5-5-5-5-5-5-|
                     * * * * * * * *                             * * * * * * * *

                 x4
G|-----------------|-----------------|
D|------9----------|-----------------|
A|-----------7-9-7-|-----------------|
E|-7--7---7--------|-5-5-5-5-5-5-5-5-|
                     * * * * * * * *

                 x4
G|-----------------|-----------------|
D|------9----------|-----------------|
A|-----------7-9-7-|-----------------|
E|-7--7---7--------|-5-5-5-5-5-5-5-5-|
                     * * * * * * * *

                 x4
G|-----------------|-----------------|
D|------9----------|-----------------|
A|-----------7-9-7-|-----------------|
E|-7--7---7--------|-5-5-5-5-5-5-5-5-|
                     * * * * * * * *


Break:

G|-----------------|
D|-----------------|
A|-----------------|
E|-5-5-5-5-5-5-5-5-|
   * * * * * * * *


Fourth part: (Play this smoothly, let notes ring)

      x7              
G|-----|--------|
D|-----|--------|     Follow the bass drum for the two quick D's
A|-55~-|-55-5/8-|
E|-----|--------|

      x7              
G|-----|--------|
D|-----|--------|
A|-55~-|-55-5/8-|
E|-----|--------|

G|-----|----------------|
D|-----|----------------|
A|-55~-|-5/12~~/10~~/8~~|
E|-----|----------------|

      x5              
G|-----|
D|-----|
A|-55~-|
E|-----|

G|------------------|
D|------------------|
A|55~5/12~~/10~~/8~~|
E|------------------|

      x4              
G|-----|---|
D|-----|---|
A|-55~-|---|
E|-----|-5-|
         *


Break:
              x4
G|-------------|       ("...Venzuela is Realised!...")
D|-------------|
A|-------------|
E|-5-5--5-55-5-|
   * *  * ** *


Outro: (brief pause after 4 repeats I think, play until end)

G|-----------------------------------------------------|   It's what the guitars are playing
D|-------2h3p2h3p2-------2h3p2h3p2---------------------|
A|---------------------------------333~-3-33-222~-2-22-|
E|-00-3~-----------00-3~-------------------------------|
      *               *
Thats it! What a tight song, just a bit repetitive

            
            
Suggest correction
Creating personal tab
Creating personal tab
You can edit any tab online and save it as your Personal.

You can edit, replace or remove any tab part or add personal notes – all changes will be seen only by you.

Personal tabs can be accessed anytime from any device, even offline.
Learn more »
Give kudos to tab author, rate the tab!
1 2 3 4 5
comments
print report bad tab
guest
You may want to rate the tab now too:
select rating
Wanna post a correction for this tab? Suggest correction