Oops, an error
Loading. Please wait.

A Clean Shot bass

version 1
version 1

Whole song

2,168 views 1 this week
4 commentsread comments
1 2 3 4 5
x 4
add to favorites
×
Save as Personal and add changes to this tab that will be seen only by you. Learn more ›
×
You can save this tab as Personal to edit and correct it or add notes. All changes will be seen only by you. Learn more »
launch autoscroll
font size
0
reset
guitar tuner
backing track
0:00
0:00
edit
Autoscroll
slow
fast
+/-
esc
set tempo
stop
Difficulty
intermediate
www.themyriad.net

As a fellow Rock Band player, I was amazed that no one had tabbed this great song from 
DLC on xbox live.

Its truley a master peice.

This is my first song that I properly learnt from ear, so dont expect it to be ultra precise.


I'll try and figure out the guitar part for this song also but for now ill just stick to 
bass.


Intro/Verse

G|-------------------------------------------------------------|
D|-12-12-10-12--12-10-12--------------10-7-10-10-7-7-----------|
A|-----------------------10-8--7-8-10--------------------------|
E|---------------------------------------------------8-5-5-5-5-|


Pre Chorus

G|---------------------------------------|
D|---------------------------------------|
A|------------------5h777777777----------|
E|-6666666666666666-------------00000000-|


Chorus
                                     |End On|
G|-----------------------------------|------|
D|-----------------------------------|------|
A|-5555555555555555-0000000000000000-|--5~--|
E|-----------------------------------|------|


Bridge

G|----------------|
D|----------------|
A|---------3------|
E|-5---1-------3--|

Structure:

Intro/Verse x5

Pre Chorus x1

Chorus x2

Intro/Verse x3

Pre Chorus x1

Chorus x3

Pre Chorus x1

Bridge x4 (kicks in after 2 measures)

Chorus x3

Pre Chorus x1

End On       A|-5-|

            
            
Suggest correction
Creating personal tab
Creating personal tab
You can edit any tab online and save it as your Personal.

You can edit, replace or remove any tab part or add personal notes – all changes will be seen only by you.

Personal tabs can be accessed anytime from any device, even offline.
Learn more »
comments
print report bad tab
4 comments total. Showing first comments.
0 reply
whisperingwolf 10 Jul 26, 2008 08:55 PM

wait a minute.
it's on rock band now?!
first MTV and now rock band! sweet.

0 reply
silent assasin 10 Jul 30, 2008 03:40 PM

i think their might be some fills in the chorus

0 reply
B33J 52 Feb 24, 2010 02:39 PM

Yeah, chorus fills!

first chorus fill sounds like:
D~------------5-7-7-5-5-7-
:A~5-5-5-5-5-7-------------
E~------------------------
Into Second part, sounds like:

D~-------------2---------
A~-0-0-0-3-0-0---0-0-5-0-:
E~-----------------------

or maybe just
A~-0-0-0-3-0-0-5-0-0-3-0-:

Really hard to tell in the recording.

guest
Wanna post a correction for this tab? Suggest correction