Oops, an error
Loading. Please wait.

Google Eye bass

639 views 1 this week
no commentswrite comment
1 2 3 4 5
2 more votes to show rating
add to favorites
×
Save as Personal and add changes to this tab that will be seen only by you. Learn more ›
×
You can save this tab as Personal to edit and correct it or add notes. All changes will be seen only by you. Learn more »
launch autoscroll
font size
0
reset
guitar tuner
edit
Autoscroll
slow
fast
+/-
esc
set tempo
stop
Author
Google Eye
The Nashville Teens
Written by John D. Loudermilk; released as a single with "T.N.T." as the B-
side.

Intro:
G|------ ------ ------ ------|------ ------ ------ ------|
D|---------------------------|-------8------7------6-----|
A|---------------------------|---------------------------|
E|---------------------------|---------------------------|



G|------ ------ ------ ------|------ ------ ------ ------|
D|5------5------5------5-----|5------8------7------6-----|
A|-----------5-------------5-|---------------------------|
E|---------------------------|---------------------------|



G|------ ------ ------ ------|------ ------ ------ ------|
D|5------5------5------5-----|5------8------7------6-----|
A|-----------5-------------5-|---------------------------|
E|---------------------------|---------------------------|


Verse:
G|------ ------ ------ ------|------ ------ ------ ------|
D|5--------------------------|5------8------7------6-----|
A|--------------5------------|---------------------------|
E|---------------------------|---------------------------|
  Jump   in  my old    Jeep   Wa  -  gon,


G|------ ------ ------ ------|------ ------ ------ ------|
D|5--------------------------|5------8------7------6-----|
A|--------------5------------|---------------------------|
E|---------------------------|---------------------------|
  bump it to the banks of the ri  -  ver,


G|------ ------ ------ ------|------ ------ ------ ------|
D|5--------------------------|5------8------7------6-----|
A|--------------5------------|---------------------------|
E|---------------------------|---------------------------|
  Dig    me  a  worm   and a  cricket       squirm, and


G|------ ------ ------ ------|------ ------ ------ ------|
D|5--------------------------|---------------------------|
A|---------------------------|---------------------------|
E|---------------------------|---------------------------|
  wade   out    in  -  to the wa  -  ter,   oh!


G|------ ------ ------ ------|------ ------ ------ ------|
D|--------------5------------|--------------5------------|
A|3--------------------------|3--------------------3-----|
E|---------------------------|---------------------------|
  Good - bye,


G|------ ------ ------ ------|------ ------ ------ ------|
D|5--------------------------|5--------------------5-----|
A|--------------5------------|--------------5------------|
E|---------------------------|---------------------------|
  google eye,


G|------ ------ ------ ------|------ ------ ------ ------|
D|--------------7------------|--------------7------------|
A|5--------------------------|5----------5---------5-----|
E|---------------------------|---------------------------|
  Eat 'em up,   google eye,   google eye,   google eye,


G|------ ------ ------ ------|------ ------ ------ ------|
D|---------------------------|---------------------------|
A|3--------------------------|3--------------------3-----|
E|--------------3------------|--------------3------------|
  eat 'em up,   google eye,   google eye,   google eye,


G|------ ------ ------ ------|------ ------ ------ ------|
D|5--------------------------|5------8------7------6-----|
A|--------------5------------|---------------------------|
E|---------------------------|---------------------------|
  Good - bye,


G|------ ------ ------ ------|------ ------ ------ ------|
D|5--------------------------|5------8------7------6-----|
A|--------------5------------|---------------------------|
E|---------------------------|---------------------------|
  google eye.

Verse:
G|------ ------ ------ ------|------ ------ ------ ------|
D|5--------------------------|5------8------7------6-----|
A|--------------5------------|---------------------------|
E|---------------------------|---------------------------|
  Bait   me  a  hook   in the mor -  ning,


G|------ ------ ------ ------|------ ------ ------ ------|
D|5----------5---------------|5------8------7------6-----|
A|--------------5------------|---------------------------|
E|---------------------------|---------------------------|
  throw it out  in  -  to the wa  -  ter,


G|------ ------ ------ ------|------ ------ ------ ------|
D|5--------------------------|5------8------7------6-----|
A|--------------5------------|---------------------------|
E|---------------------------|---------------------------|
  Make   him    swim   with a dor -  sal    fin,   and


G|------ ------ ------ ------|------ ------ ------ ------|
D|5--------------------------|---------------------------|
A|---------------------------|---------------------------|
E|---------------------------|---------------------------|
  come   home   to     me,    daugh- ter,   oh!


G|------ ------ ------ ------|------ ------ ------ ------|
D|---------------------------|---------------------------|
A|3--------------------------|3----------3---------3-----|
E|--------------3------------|--------------3------------|
  Good - bye,


G|------ ------ ------ ------|------ ------ ------ ------|
D|5--------------------------|5----------5---------5-----|
A|--------------5------------|--------------5------------|
E|---------------------------|---------------------------|
  google eye,


G|------ ------ ------ ------|------ ------ ------ ------|
D|--------------7------------|--------------7------------|
A|5--------------------------|5----------5---------5-----|
E|---------------------------|---------------------------|
  Eat 'em up,   google eye,   google eye,   google eye,


G|------ ------ ------ ------|------ ------ ------ ------|
D|---------------------------|---------------------------|
A|3--------------------------|3--------------------3-----|
E|--------------3------------|--------------3------------|
  eat 'em up,   google eye,   google eye,   google eye,


G|------ ------ ------ ------|------ ------ ------ ------|
D|5--------------------------|5------8------7------6-----|
A|--------------5------------|---------------------------|
E|---------------------------|---------------------------|
  Good - bye,


G|------ ------ ------ ------|------ ------ ------ ------|
D|5--------------------------|5------8------7------6-----|
A|--------------5------------|---------------------------|
E|---------------------------|---------------------------|
  google eye.

Break (solo):
G|------ ------ ------ ------|------ ------ ------ ------|
D|5------5-------------------|3------3-------------------|
A|---------------------------|---------------------------|
E|---------------------------|---------------------------|



G|------ ------ ------ ------|------ ------ ------ ------|
D|5------5-------------------|3------3-------------------|
A|---------------------------|---------------------------|
E|---------------------------|---------------------------|



G|------ ------ ------ ------|------ ------ ------ ------|
D|5------5-------------------|3------3-------------------|
A|---------------------------|---------------------------|
E|---------------------------|---------------------------|



G|------ ------ ------ ------|------ ------ ------ ------|
D|5------5------5------5-----|5------3------2------------|
A|---------------------------|---------------------5-----|
E|---------------------------|---------------------------|



G|------ ------ ------ 2-----|3----- 2----- 3----- 2-----|
D|-------2------5------------|---------------------------|
A|3--------------------------|---------------------------|
E|---------------------------|---------------------------|



G|------ ------ ------ ------|------ ------ ------ ------|
D|5------3------2------1-----|2------3------5------2-----|
A|---------------------------|---------------------------|
E|---------------------------|---------------------------|



G|------ ------ ------ ------|------ ------ ------ ------|
D|---------------------------|--------------3------4-----|
A|5------5------3------3-----|5------5-------------------|
E|---------------------------|---------------------------|



G|------ ------ ------ ------|------ ------ ------ ------|
D|5------0------1------2-----|3------4------5------6-----|
A|---------------------------|---------------------------|
E|---------------------------|---------------------------|


Verse:
G|------ ------ ------ ------|------ ------ ------ ------|
D|7--------------------------|7------10-----9------8-----|
A|--------------7------------|---------------------------|
E|---------------------------|---------------------------|
  Google eye,   swim around   hip    boot,
                           the

G|------ ------ ------ ------|------ ------ ------ ------|
D|7--------------------------|7------10-----9------8-----|
A|--------------7----------7-|---------------------------|
E|---------------------------|---------------------------|
  look up   at     me from   wa  -  ter,
                           the

G|------ ------ ------ ------|------ ------ ------ ------|
D|7--------------------------|7------10-----9------8-----|
A|--------------7----------7-|---------------------------|
E|---------------------------|---------------------------|
  Google eye    jump   and    fall   on the romp,  and


G|------ ------ ------ ------|------ ------ ------ ------|
D|7--------------------------|---------------------------|
A|---------------------------|---------------------------|
E|---------------------------|---------------------------|
  get him up    out    of the wa  -  ter,   oh!


G|------ ------ ------ ------|------ ------ ------ ------|
D|--------------7------------|--------------7------------|
A|5--------------------------|5--------------------5-----|
E|---------------------------|---------------------------|
  Good - bye,


G|------ ------ ------ ------|------ ------ ------ ------|
D|7--------------------------|7------10-----9------7-----|
A|--------------7------------|---------------------------|
E|---------------------------|---------------------------|
  google eye,


G|------ ------ ------ ------|------ ------ ------ ------|
D|---------------------------|---------------------------|
A|7--------------------------|7--------------------7-----|
E|--------------7----------7-|--------------7------------|
  Eat 'em up,   google eye,   google eye,   google eye,


G|------ ------ ------ ------|------ ------ ------ ------|
D|--------------7------------|--------------7------------|
A|5--------------------------|5--------------------5-----|
E|---------------------------|---------------------------|
  eat 'em up,   google eye,   google eye,   google eye,


G|------ ------ ------ ------|------ ------ ------ ------|
D|7--------------------------|7------10-----9------8-----|
A|--------------7------------|---------------------------|
E|---------------------------|---------------------------|
  Good - bye,


G|------ ------ ------ ------|------ ------ ------ ------|
D|7--------------------------|7------10-----9------8-----|
A|--------------7----------7-|---------------------------|
E|---------------------------|---------------------------|
  google eye.

Verse:
G|------ ------ ------ ------|------ ------ ------ ------|
D|7--------------------------|7------10-----9------8-----|
A|--------------7------------|---------------------------|
E|---------------------------|---------------------------|
  Google eye    fry    in the sizz - le,


G|------ ------ ------ ------|------ ------ ------ ------|
D|7----------7---------------|7------10-----9------8-----|
A|--------------7----------7-|---------------------------|
E|---------------------------|---------------------------|
  sweet  smoke  lay    on the wa  -  ter,


G|------ ------ ------ ------|------ ------ ------ ------|
D|7--------------------------|7------10-----9------8-----|
A|--------------7----------7-|---------------------------|
E|---------------------------|---------------------------|
  Take   all    google eye    scales and    tails


G|------ ------ ------ ------|------ ------ ------ ------|
D|7--------------------------|7------5------4------------|
A|--------------7------------|---------------------7-----|
E|---------------------------|---------------------------|
         home   to     me,    daugh- ter,   oh!


G|------ ------ ------ ------|------ ------ ------ ------|
D|--------------7------------|--------------7------------|
A|5--------------------------|5--------------------5-----|
E|---------------------------|---------------------------|
  Good - bye,


G|------ ------ ------ ------|------ ------ ------ ------|
D|7--------------------------|7--------------------7-----|
A|--------------7------------|--------------7------------|
E|---------------------------|---------------------------|
  google eye,


G|------ ------ ------ ------|------ ------ ------ ------|
D|--------------9------------|--------------9------------|
A|7--------------------------|7--------------------7-----|
E|---------------------------|---------------------------|
  Eat 'em up,   google eye,   google eye,   google eye,


G|------ ------ ------ ------|------ ------ ------ ------|
D|--------------7------------|--------------7------------|
A|5--------------------------|5--------------------5-----|
E|---------------------------|---------------------------|
  eat 'em up,   google eye,   google eye,   google eye,


G|------ ------ ------ ------|------ ------ ------ ------|
D|7--------------------------|7------10-----9------8-----|
A|--------------7----------7-|---------------------------|
E|---------------------------|---------------------------|
  Good - bye,


G|------ ------ ------ ------|------ ------ ------ ------|
D|7--------------------------|7------10-----9------8-----|
A|--------------7----------7-|---------------------------|
E|---------------------------|---------------------------|
  google eye.

Outro:
G|------ ------ ------ ------|------ ------ ------ ------|
D|7----------7---------------|7------10-----9------8-----|
A|--------------7------------|---------------------------|
E|---------------------------|---------------------------|
  Good - bye,


G|------ ------ ------ ------|------ ------ ------ ------|
D|7--------------------------|7------10-----9------8-----|
A|--------------7------------|---------------------------|
E|---------------------------|---------------------------|



G|------ ------ ------ ------|------ ------ ------ ------|
D|--------------7------------|--------------9------------|
A|5----------5---------5-----|7----------7---------7-----|
E|---------------------------|---------------------------|
  Good - bye!


G|------ ------ ------ ------|------ ------ ------ ------|
D|7-------------5------5-----|7----------7--5------5-----|
A|---------------------------|---------------------------|
E|---------------------------|---------------------------|



G|------ ------ ------ ------|------ ------ ------ ------|
D|7----------7--5------6-----|7--------------------------|
A|---------------------------|---------------------------|
E|---------------------------|---------------------------|

Please e-mail me for any corrections, or write a comment.

            
            
Suggest correction
Creating personal tab
Creating personal tab
You can edit any tab online and save it as your Personal.

You can edit, replace or remove any tab part or add personal notes – all changes will be seen only by you.

Personal tabs can be accessed anytime from any device, even offline.
Learn more »
Give kudos to tab author, rate the tab!
1 2 3 4 5
comments
print report bad tab
guest
You may want to rate the tab now too:
select rating
Wanna post a correction for this tab? Suggest correction