Oops, an error
Loading. Please wait.

The Rains Of Castamere tab

version 2
version 2

Whole song

Interactive

60,322 views 489 this week
4 commentsread comments
1 2 3 4 5
x 107
add to favorites
×
Save as Personal and add changes to this tab that will be seen only by you. Learn more ›
×
You can save this tab as Personal to edit and correct it or add notes. All changes will be seen only by you. Learn more »
launch autoscroll
font size
0
reset
how to read this tab
guitar tuner
edit
Autoscroll
slow
fast
+/-
esc
set tempo
stop
The National- Rains of Castamere

Capo 5th fret if you want to play along, sounds good without one, too. Enjoy :)

   "And who are you", the proud lord said, "that I must bow so low?
E|--------------------------------------------|
B|-----1-----0-----1--3--0-----3--1--0-----0--|
G|-----2-----2-----2--------------------2-----|
D|--2-----2-----2-----------2-----------------|
A|-----0-----0-----0-----------0--------------|
E|-----------------------------------------3--|


  Only a cat of a different coat, that's all the truth i know."
E|--0--0--1--------0--1--------1--0-----------|
B|--1--------3-----1-----3-----3-----3--1--0--|
G|--0-----------2--0--------0--2--------------|
D|-----------------------------0--------------|
A|--3--------------3--------------------------|
E|--------------------------------------------|

  "In a coat of gold, or a coat of red, a lion still has claws
E|--------------------------------------------|
B|-----1-----0-----1--3--0-----3--1--0-----0--|
G|-----2-----2-----2--------------------2-----|
D|--2-----2-----2-----------2-----------------|
A|-----0-----0-----0-----------0--------------|
E|-----------------------------------------3--|

  and mine are long and sharp, my lord, as long and sharp as yours."
E|--0--0--1--------0--1--------1--0-----------|
B|--1--------3-----1-----3-----3-----3--1-----|
G|--0-----------2--0--------0--2-----------2--|
D|-----------------------------0--------------|
A|--3--------------3--------------------------|
E|-----------------------------------------0--|

  And so he spoke, and so he spoke, that Lord of Castamere,
E|-----------------------------------------------|
B|-----0--1-----1--1--0--------0--1-----1--1--0--|
G|-----------2-----------0-----------2-----------|
D|--2-----------------------2--------------------|
A|-----0--------0--------------0--------0--------|
E|-----------------------0-----------------------|

  but now the rains weep o'er his hall, with no one there to hear.
E|--------------0--0--------------------------|
B|-----0--1-----3-----3-----1--0-----0--1-----|
G|-----------2--2--------2--------1--------2--|
D|--2-----------0-----------------------------|
A|-----0--------------------0-----------0-----|
E|--------------------------------0-----------|

  Yes, now the rains weep o'er his hall, and not a soul to hear.
E|--------------0--0--------------------------|
B|-----0--1-----3-----3-----1--0-----0--1-----|
G|-----------2--2--------2--------1--------2--|
D|--2-----------0-----------------------------|
A|-----0--------------------0-----------0-----|
E|--------------------------------0-----------|

            
            
Suggest correction
Creating personal tab
Creating personal tab
You can edit any tab online and save it as your Personal.

You can edit, replace or remove any tab part or add personal notes – all changes will be seen only by you.

Personal tabs can be accessed anytime from any device, even offline.
Learn more »
comments
print report bad tab
4 comments total. Showing first comments. show 1 bad comment
+38 reply
den.callanan 10 Apr 17, 2014 11:54 PM

Very last part I think sounds like this. But super tab !

Yes, now the rains weep o'er his hall, and not a soul to hear.
E|--------------0--0-----------------0--------------|
B|-----0--1-----3-----3-----3--1--------3--0--1-----|
G|-----------2--2--------2--------2--------------2--|
D|--2-----------0-----------------------------------|
A|-----0-----------------------0-----------------0--|
E|--------------------------------------------------|

+7 reply
Adriatic 203 Jun 17, 2014 01:43 AM

minor corrections, it sounds better with these 3 little flicks

And so he spoke, and so he spoke, that Lord of Castamere,
E|-------------------------------------------|
B|-----0h1-----1--1p0--------0h1-----1--1-0--|
G|----------2----------0----------2----------|
D|--2---------------------2------------------|
A|-----0-------0-------------0-------0-------|
E|---------------------0---------------------|

guest
You may want to rate the tab now too:
select rating
Wanna post a correction for this tab? Suggest correction