Oops, an error
Loading. Please wait.

Daddy Issues chords

version 4
version 4

Whole song

613 views 30 this week
1 commentread comment
1 2 3 4 5
1 last vote to show rating
add to favorites
×
Save as Personal and add changes to this tab that will be seen only by you. Learn more ›
×
You can save this tab as Personal to edit and correct it or add notes. All changes will be seen only by you. Learn more »
launch autoscroll
font size
0
reset
transpose
0
reset
simplify chords
display chords
guitar tuner
edit
Autoscroll
slow
fast
+/-
esc
set tempo
stop
About this tab version
It's complete and it can be played with 2 guitars. Was this info helpful? Yes No
Strumming
There is no strumming pattern for this song yet. and get +5 IQ
If you find any mistakes, tell me and I'll correct them.
I still have to do the lead guitar on pre-chorus and I'll try to post the strumming. 
Thank you for you time !

[Intro]

e|------------------------|-------------------------------------------|
B|-----------------0------|-----------------0------0------0-----------|
G|----------0---------0---|----------0---------2------2------2---0----|
D|---0--2------2----------|---0--2------2-----------------------------|  
A|------------------------|-------------------------------------------|
E|------------------------|-------------------------------------------|

(lead guitar will play first part 2 times and second part 1 time)


[Verse 1]
Am*    Em*        G*
  Take you like a drug
Am*        Em*      G*
  I taste you on my tongue

************************************

| *  strum once

************************************


[Pre-Chorus]
Am
  You ask me what I'm thinking about
Em
  I'll tell you that I'm thinking about
G                                G
  Whatever you're thinking about
Am
  Tell me something that I won't forget
Em
  And you might have to tell me again
G                                   G*
  It's crazy what you'll do for a friend


[Chorus]
     Am
  Go ahead and cry, little girl
              Em
  Nobody does it like you do
                    G
  I know how much it matters to you
 G
  I know that you got daddy issues
           Am
  And if you were my little girl
           Em
  I'd do whatever I could do
                     G
  I'd run away and hide with you
 G
  I know that you got daddy issues, and I do too

e|------------------------|-------------------------------------------|
B|-----------------0------|-----------------0------0------0-----------|
G|----------0---------0---|----------0---------2------2------2---0----|
D|---0--2------2----------|---0--2------2-----------------------------|  
A|------------------------|-------------------------------------------|
E|------------------------|-------------------------------------------|

(lead guitar will play first part 2 times and second part 1 time)


[Verse 2]
Am               Em
  I tried to write your name in the rain
G
  But the rain never came

  So I made with the sun
Am
  The shade
Em                             G
  Always comes at the worst time


[Pre-Chorus]
Am
  You ask me what I'm thinking about
Em
  I'll tell you that I'm thinking about
G                                G
  Whatever you're thinking about
Am
  Tell me something that I won't forget
Em
  And you might have to tell me again
G                                   G*
  It's crazy what you'll do for a friend




[Chorus]
     Am
  Go ahead and cry, little girl
              Em
  Nobody does it like you do
                    G
  I know how much it matters to you
 G
  I know that you got daddy issues
           Am
  And if you were my little girl
           Em
  I'd do whatever I could do
                     G
  I'd run away and hide with you
 G
  I know that you got daddy issues, and I do too

e|------------------------|-------------------------------------------|
B|-----------------0------|-----------------0------0------0-----------|
G|----------0---------0---|----------0---------2------2------2---0----|
D|---0--2------2----------|---0--2------2-----------------------------|  
A|------------------------|-------------------------------------------|
E|------------------------|-------------------------------------------|

   (lead guitar will play first part 2 times and second part 1 time)


[Verse 3]

        Am                              Em                              Em7                        
e|----------------------------|----------------------------|-------------------------|----------------------|
B|--------1-----1-----1-----1-|--------0-----0-----0-----0-|-------------------------|------3----3----3----3|
G|------2-----2-----2-----2---|------0-----0-----0-----0---|---------0----0---0----0-|----4----4----4----4--|
D|---2------2-----2-----2-----|----2-----2-----2-----2-----|-------0----0----0----0--|--5----5----5----5----|
A|----------------------------|----------------------------|-----2----2----2----2----|----------------------|
E|----------------------------|----------------------------|-------------------------|----------------------|

I keep on trying to let you go
I'm dying to let you know
How I'm getting on
I didn't cry when you left at first
But now that you're dead it hurts
This time I gotta know
Where did my daddy go?

          Am          Em
I'm not entirely here
              G           
Half of me has disappeared

************************************************
   the lead guitar will finger pick non-stop
   and on the last 2 lines, the rythm guitar 
   will play along with the lead
************************************************


[Bridge]
Go ahead and cry, little boy
You know that your daddy did too
You know what your mama went through
You gotta let it out soon, just let it out

e|------------------------|-------------------------------------------|
B|-----------------0------|-----------------0------0------0-----------|
G|----------0---------0---|----------0---------2------2------2---0----|
D|---0--2------2----------|---0--2------2-----------------------------|  
A|------------------------|-------------------------------------------|
E|------------------------|-------------------------------------------|

(lead guitar will play first part 2 times and second part 1 time)



[Chorus]
     Am
  Go ahead and cry, little girl
              Em
  Nobody does it like you do
                    G
  I know how much it matters to you
 G
  I know that you got daddy issues
           Am
  And if you were my little girl
           Em
  I'd do whatever I could do
                     G
  I'd run away and hide with you
 G
  I know that you got daddy issues, and I do too

e|------------------------|-------------------------------------------|
B|-----------------0------|-----------------0------0------0-----------|
G|----------0---------0---|----------0---------2------2------2---0----|
D|---0--2------2----------|---0--2------2-----------------------------|  
A|------------------------|-------------------------------------------|
E|------------------------|-------------------------------------------|

(lead guitar will play first part 2 times and second part 1 time)

            
            
Suggest correction
Creating personal tab
Creating personal tab
You can edit any tab online and save it as your Personal.

You can edit, replace or remove any tab part or add personal notes – all changes will be seen only by you.

Personal tabs can be accessed anytime from any device, even offline.
Learn more »
Give kudos to tab author, rate the tab!
1 2 3 4 5
comments
print report bad tab
1 comment total.
0 reply
Enter_Username 10 Apr 28, 2017 05:08 PM

This is a good tab but some minor mistakes with the lyrics in the pre-chorus. It's supposed to be 'Tell me something I won't forget. But you might have to tell me again.'

guest
You may want to rate the tab now too:
select rating
Wanna post a correction for this tab? Suggest correction