Oops, an error
Loading. Please wait.

The Beach tab

5,176 views 72 this week
no commentswrite comment
1 2 3 4 5
x 6
add to favorites
×
Save as Personal and add changes to this tab that will be seen only by you. Learn more ›
×
You can save this tab as Personal to edit and correct it or add notes. All changes will be seen only by you. Learn more »
launch autoscroll
font size
0
reset
how to read this tab
guitar tuner
edit
Autoscroll
slow
fast
+/-
esc
set tempo
stop
The Beach - The Neighbourhood
Tabbed by:Anthony Gonzalez
E-mail:Splidao@hotmail.com
Instagram and Twitter @splidao
Tuning:D Standard DGCFAD

https://www.youtube.com/watch?v=MxcDRAkel-Y

Here is a cover i made when the song first came out i got the rhythms down for the chords pretty good 
so you could use that to learn the strumming pattern but there is a few minor changes in the lead parts 
in this tab 
Thank you!

Intro Chords I added in my cover
D|---------------------------------------------------------------------------|
A|--13-----12-----8-----7----------------------------------------------------|
F|--12-----12-----7-----7----------------------------------------------------|
C|--14-----14-----9-----9---(x3)---------------------------------------------|
G|---------------------------------------------------------------------------|
D|---------------------------------------------------------------------------|

[Verse 1]
D|--8--------5--------0------------------------------------------------------|
A|--8--------5--------0------------------------------------------------------|
F|--9--------5--------0------------------------------------------------------|
C|--10-------7--------2------------------------------------------------------|
G|--10-------7--------2--(x4)------------------------------------------------|
D|--8--------5--------0------------------------------------------------------|

[Chorus 1]
D|-----7--------7--------10---8---7-------------7--------7-------7---10---8----7--|
A|---5---5----5---5--5/8----8---8---8---------5---5----5---5-5/8---8----8---8--8--|
F|-7--------5--------------------------(x3)-7--------5-------------------------9--|
C|--------------------------------------------------------------------------------|
G|--------------------------------------------------------------------------------|
D|--------------------------------------------------------------------------------|
                                                                       
[Verse 2]
D|--8------5------0-------8------5------0------2------8------5------0--------|
A|--8------5------0-------8------5------0------3------8------5------0--------|
F|--9------5------0-------9------5------0------4------9------5------0--------|
C|--10-----7------2-------10-----7------2------5------10-----7------2--------|
G|--10-----7------2--(x2)-10-----7------2------5------10-----7------2--------|
D|--8------5------0-------8------5------0------3------8------5------0--------|

[Chorus 2]
D|-----7--------7--------10---8---7---------7--------7--------10---10---8----|
A|---5---5----5---5--5/8----8---8---8-----5---5----5---5--5/8----8----8---8--|
F|-7--------5---------------------------7--------5---------------------------|
C|---------------------------------------------------------------------------|
G|---------------------------------------------------------------------------|
D|---------------------------------------------------------------------------|

[Chorus 2]
D|-----7--------7--------10---8---7---------7--------7--------7---10---8------|
A|---5---5----5---5--5/8----8---8---8-----5---5----5---5--5/8---8----8---8----|
F|-7--------5---------------------------7--------5----------------------------|
C|----------------------------------------------------------------------------|
G|----------------------------------------------------------------------------|
D|----------------------------------------------------------------------------|

[Bridge]
D|--7-----0---3-----8-----0---3-----8-----0---3-----8-----0-------------------|
A|--8-----0---3-----8-----0---3-----8-----0---3-----8-----0-------------------|
F|--9-----0---4-----9-----0---4-----9-----0---4-----9-----0-------------------|
C|--------2---5-----10----2---5-----10----2---5-----10----2-------------------|
G|--------2---5-----10----2---5-----10----2---5-----10----2-------------------|
D|--------0---3-----8-----0---3-----8-----0---3-----8-----0-------------------|

[Chorus 3]
D|-----7--------7--------10---8---7---------7--------7--------10---10---8----|
A|---5---5----5---5--5/8----8---8---8-----5---5----5---5--5/8----8----8---8--|
F|-7--------5---------------------------7--------5---------------------------|
C|---------------------------------------------------------------------------|
G|---------------------------------------------------------------------------|
D|---------------------------------------------------------------------------|

[Chorus 3]
D|-----7--------7--------10---8---7---------7--------7--------7---10---8------|
A|---5---5----5---5--5/8----8---8---8-----5---5----5---5--5/8---8----8---8----|
F|-7--------5---------------------------7--------5----------------------------|
C|----------------------------------------------------------------------------|
G|----------------------------------------------------------------------------|
D|----------------------------------------------------------------------------|

[Outro]
D|-----7--------7--------10---8---7---------7--------7--------7---10---8----7-|
A|---5---5----5---5--5/8----8---8---8-----5---5----5---5--5/8---8----8---8--8-|
F|-7--------5---------------------------7--------5--------------------------9-|
C|----------------------------------------------------------------------------|
G|----------------------------------------------------------------------------|
D|----------------------------------------------------------------------------|

************************************

| /  Slide up

************************************

            
            
Suggest correction
Creating personal tab
Creating personal tab
You can edit any tab online and save it as your Personal.

You can edit, replace or remove any tab part or add personal notes – all changes will be seen only by you.

Personal tabs can be accessed anytime from any device, even offline.
Learn more »
comments
print report bad tab
guest
You may want to rate the tab now too:
select rating
Wanna post a correction for this tab? Suggest correction