Oops, an error
Loading. Please wait.

Hanging On The Telephone tab

version 2
version 2

Whole song

727 views 6 this week
no commentswrite comment
1 2 3 4 5
3 more votes to show rating
add to favorites
×
Save as Personal and add changes to this tab that will be seen only by you. Learn more ›
×
You can save this tab as Personal to edit and correct it or add notes. All changes will be seen only by you. Learn more »
launch autoscroll
font size
0
reset
how to read this tab
guitar tuner
edit
Autoscroll
slow
fast
+/-
esc
set tempo
stop
Difficulty
intermediate
-------------------------------------------------------------------------------
                  HANGING ON THE TELEPHONE - The Nerves
-------------------------------------------------------------------------------

Tuning: Standard

Didn't see any accurate tabs on here so I figured the song out myself. There's a little 
variated version of Riff 3 at the very end of the song, but here's the main 3 guitar 
parts. Listen to the recording for the order.

Riff 1:

e|---------------------------------------------------------------------------|
B|11-11-11-11-----------------11---------------------------------------------|
G|10-10-10-10------12-10-12--------------------------------------------------|
D|8--8--8--8--10-8-----------------------------------------------------------|
A|---------------------------------------------------------------------------|
E|---------------------------------------------------------------------------|

e|---------------------------------------------------------------------------|
B|11-11-11-11-----------------11---------------------------------------------|
G|10-10-10-10------12-10-12--------------------------------------------------|
D|8--8--8--8--10-8-----------------------------------------------------------|
A|---------------------------------------------------------------------------|
E|---------------------------------------------------------------------------|

e|---------------------------------------------------------------------------|
B|11-11-11-11----------------------------------------------------------------|
G|10-10-10-10----------------------------------------------------------------|
D|8--8--8--8--10-8--------------------0--------------------------------------|
A|-------------------8-10-8---1-3-1------------------------------------------|
E|----------------------------------3----------------------------------------|

Riff 2:

e|---------------------------------------------------------------------------|
B|---------------------------------------------------------------------------|
G|---------------------------------------------------------------------------|
D|1---0------------------0------------0-----0--------------------------------|
A|--------1-----------1------------1-----1-----------------------------------|
E|---------------1-3--------3-1-3--------------------------------------------|

e|---------------------------------------------------------------------------|
B|---------------------------------------------------11----------------------|
G|----------------------------------------10-12-12---------------------------|
D|1---0------------------0------------0--------------------------------------|
A|--------1-----------1------------1-----------------------------------------|
E|---------------1-3--------3-1-3--------------------------------------------|

Riff 3:

e|---------------------------------------------------------------------------|
B|---------------------------------------------------------------------------|
G|--------0-----------3---3--------------------------------------------------|
D|----1-----------3/5-------5-3----------------------------------------------|
A|3-----------3-1-----------------1------------------------------------------|
E|------------------------------3--------------------------------------------|

************************************

| /   slide up
| \   slide down
| h   hammer-on
| p   pull-off
| ~   vibrato
| +   harmonic
| x   Mute note
| b   Bend
| pb  Pre-bend
| br  Bend release
| pbr Pre-bend release
| brb Bend release bend

************************************

            
            
Suggest correction
Creating personal tab
Creating personal tab
You can edit any tab online and save it as your Personal.

You can edit, replace or remove any tab part or add personal notes – all changes will be seen only by you.

Personal tabs can be accessed anytime from any device, even offline.
Learn more »
Give kudos to tab author, rate the tab!
1 2 3 4 5
comments
print report bad tab
guest
Wanna post a correction for this tab? Suggest correction