Oops, an error
Loading. Please wait.

Cradle In The Crater bass

506 views 3 this week
2 commentsread comments
1 2 3 4 5
2 more votes to show rating
add to favorites
×
Save as Personal and add changes to this tab that will be seen only by you. Learn more ›
×
You can save this tab as Personal to edit and correct it or add notes. All changes will be seen only by you. Learn more »
launch autoscroll
font size
0
reset
guitar tuner
edit
Autoscroll
slow
fast
+/-
esc
set tempo
stop
Author
-------------------------------------------------------------------------------
		 Cradle in the Crater - The Number Twelve Looks Like You
-------------------------------------------------------------------------------

 Tabbed By :dvanwyk 
 e-mail:dustinvanwyk@yahoo.ocm

 (0.02)
G|-----------------|
D|---10------------|
A|11----9~---------|
E|-----------------|

 (0.27)
G|-------------------------------------------------------------|
D|-------------------------------------------------------------|
A|-------------------------------------------------------------|
E|7-7-7-xxx-7-7-7-xxx-7-7-7-xxx-7-7-7-xxx-7-7-7-xxx-7-7-7-xxx--|

 x3
G|------------------------------------|
D|------------------------------------|
A|---------------------3~----1~-------|
E|7~----5~------0~---3----------------|

G|---------------------------------------------------------------|
D|---------------------------------------------------------------|
A|5~---4~--------2~---6~---5~---4~---2~----5~---4~---------2~----|
E|----------0~----------------------------------------0~---------|

 (1.44 - 2.16)
G|---------------------------------------------|
D|------14h16p14-------------------------------|
A|---14----------14~--12-14-12-----------------|
E|15----------------------------15-12h14h15----|

 x4 (2.17)
G|------------------------|
D|------------------------|
A|3~---2~---5h7/9-7-5~----|
E|------------------------|

 x4
G|-------------------------------------|
D|-------------------------------------|
A|----------5~---4~-------5~---4~------|
E|0~---5~-------------0-5--------------|


 (3.52)
G|-----------------------------------------------------------------------------------------|
D|-----------------------------------------------------------------------------------------|
A|-----------------------------------------------------------------------------------------|
E|2-2-2-2-5-5-5-5-00-33-55-77-7-7-7-7-5-5-5-5-00-33-55-77-7-7-7-7-5-5-5-5-00-33-55-77-0----|

            
            
Suggest correction
Creating personal tab
Creating personal tab
You can edit any tab online and save it as your Personal.

You can edit, replace or remove any tab part or add personal notes – all changes will be seen only by you.

Personal tabs can be accessed anytime from any device, even offline.
Learn more »
Give kudos to tab author, rate the tab!
1 2 3 4 5
comments
print report bad tab
2 comments total.
0 reply
zaingasm 31 Dec 01, 2009 04:52 PM

You forgot the intro, and the "Pause" you have in there actually has a pretty complex bass line. So does the intro. I just dont think you have enough skill to even attempt it.

0 reply
zaingasm 31 Jan 13, 2010 11:30 AM

Happy to see you noticed my comment there. Good job, except I think the intro is still wrong. I'll try and see if I can help figure it out. And sorry bout being mean xD

guest
You may want to rate the tab now too:
select rating
Wanna post a correction for this tab? Suggest correction