Oops, an error
Loading. Please wait.

The Kingdom tab

43 views 1 this week
no commentswrite comment
1 2 3 4 5
3 more votes to show rating
add to favorites
×
Save as Personal and add changes to this tab that will be seen only by you. Learn more ›
×
You can save this tab as Personal to edit and correct it or add notes. All changes will be seen only by you. Learn more »
launch autoscroll
font size
0
reset
how to read this tab
guitar tuner
edit
Autoscroll
slow
fast
+/-
esc
set tempo
stop
Author
———————————————————————————————— THE KINGDOM - O.C. Supertones --------------------------------------------
INTRO
e|---------------------------------------------------------------------|
B|---------------------------------------------------------------------|
G|-5--5-5--5--5-5-7---------7-7-7-7--5--5-5--5--5-5-7---------7-7-7-7--|
D|-5--5-5--5--5-5-7-5-5-5-5-7-7-7-7--5--5-5--5--5-5-7-5-5-5-5-7-7-7-7--|
A|-3--3-3--3--3-3-5-5-5-5-5-5-5-5-5--3--3-3--3--3-3-5-5-5-5-5-5-5-5-5--|
E|------------------3-3-3-3---------------------------3-3-3-3----------|


CHORUS
e|------------------------------------------------------------------|
B|------------------------------------------------------------------|
G|-------------7-4-5-5-5-5-5-5-5-5-------------7-7-5--5-5--5--5-5-7-|
D|-5-5-5-5-2-2-7-4-5-5-5-5-5-5-5-5-5-5-5-5-2-2-7-7-5--5-5--5--5-5-7-|
A|-5-5-5-5-2-2-5-2-3-3-3-3-3-3-3-3-5-5-5-5-2-2-5-5-3--3-3--3--3-3-5-|
E|-3-3-2-2-0-0---------------------3-3-2-2-0-0----------------------|


VERSE PART 1
Guitar 1: Clean
e|-3--3--5--5--5--5--3--3--3--3--5--5--5--5--3--3--|
B|-3--3--7--7--5--5--5--5--3--3--7--7--5--5--5--5--|
G|-4--4--7--7--5--5--5--5--4--4--7--7--5--5--5--5--|
D|-5--5--7--7--7--7--5--5--5--5--7--7--7--7--5--5--|
A|-5--5--5--5--7--7--3--3--5--5--5--5--7--7--3--3--|
E|-3--3--------5--5--------3--3--------5--5--------|


VERSE PART 2
Guitar 1: Clean
e|-3-3-3-3-3-3-3-3-5-5-5-5-7-7-7-7-3-3-3-3-3-3-3-3-5-5-5-5-7-7-7-7-|
B|-5-5-5-5-3-3-3-3-7-7-7-7-8-8-8-8-5-5-5-5-3-3-3-3-7-7-7-7-8-8-8-8-|
G|-5-5-5-5-4-4-4-4-7-7-7-7-9-9-9-9-5-5-5-5-4-4-4-4-7-7-7-7-9-9-9-9-|
D|-5-5-5-5-5-5-5-5-7-7-7-7-9-9-9-9-5-5-5-5-5-5-5-5-7-7-7-7-9-9-9-9-|
A|-3-3-3-3-5-5-5-5-5-5-5-5-7-7-7-7-3-3-3-3-5-5-5-5-5-5-5-5-7-7-7-7-|
E|---------3-3-3-3-------------------------3-3-3-3-----------------|

Guitar 2: Dist.
e|-----------------------------------------------------------------|
B|-----------------------------------------------------------------|
G|-----------------------------------------------------------------|
D|-5-5-5-5---------7-7-7-7-9-9-9-9-5-5-5-5---------7-7-7-7-9-9-9-9-|
A|-3-3-3-3-5-5-5-5-5-5-5-5-7-7-7-7-3-3-3-3-5-5-5-5-5-5-5-5-7-7-7-7-|
E|---------3-3-3-3-------------------------3-3-3-3-----------------|
P.M . . . . . . . . . . . . . . . . . . . . . . . . . . . . . . . .

Guitar 1: Dist.
e|-----|
B|-7-7-|
G|-7-7-|
D|-7-7-|
A|-5-5-|
E|-----|

Guitar 2: Dist.
e|------------------|
B|------------------|
G|-7-7--------------|
D|-7-7-7-7-7-7-7-7--|
A|-5-5-5-5-5-5-5-5--|
E|------------------|
       PM......... 

CHORUS
e|-------------------------------------------------------------------|
B|-------------------------------------------------------------------|
G|-------------7-7-5-5-5-5-5-5-5-5-------------7-7-5--5-5---5--5-5---|
D|-5-5-5-5-2-2-7-7-5-5-5-5-5-5-5-5-5-5-5-5-2-2-7-7-5--5-5-5-5--5-5-5-|
A|-5-5-5-5-2-2-5-5-3-3-3-3-3-3-3-3-5-5-5-5-2-2-5-5-3--3-3-5-3--3-3-5-|
E|-3-3-2-2-0-0---------------------3-3-2-2-0-0------------3--------3-|

e|------------------------------|
B|------------------------------|
G|-7-7-7-7-9-9-9-9-7-7-7-7-5-5--|
D|-7-7-7-7-9-9-9-9-7-7-7-7-5-5--|
A|-5-5-5-5-7-7-7-7-5-5-5-5-3-3--|
E|------------------------------|


VERSE PART 1
Guitar 1: Clean
e|-3--3--5--5--5--5--3--3--3--3--5--5--5--5--3--3--|
B|-3--3--7--7--5--5--5--5--3--3--7--7--5--5--5--5--|
G|-4--4--7--7--5--5--5--5--4--4--7--7--5--5--5--5--|
D|-5--5--7--7--7--7--5--5--5--5--7--7--7--7--5--5--|
A|-5--5--5--5--7--7--3--3--5--5--5--5--7--7--3--3--|
E|-3--3--------5--5--------3--3--------5--5--------|



VERSE PART 2
Guitar 1: Clean
e|-3-3-3-3-3-3-3-3-5-5-5-5-7-7-7-7-3-3-3-3-3-3-3-3-5-5-5-5-7-7-7-7-|
B|-5-5-5-5-3-3-3-3-7-7-7-7-8-8-8-8-5-5-5-5-3-3-3-3-7-7-7-7-8-8-8-8-|
G|-5-5-5-5-4-4-4-4-7-7-7-7-9-9-9-9-5-5-5-5-4-4-4-4-7-7-7-7-9-9-9-9-|
D|-5-5-5-5-5-5-5-5-7-7-7-7-9-9-9-9-5-5-5-5-5-5-5-5-7-7-7-7-9-9-9-9-|
A|-3-3-3-3-5-5-5-5-5-5-5-5-7-7-7-7-3-3-3-3-5-5-5-5-5-5-5-5-7-7-7-7-|
E|---------3-3-3-3-------------------------3-3-3-3-----------------|

Guitar 2: Dist.
e|-----------------------------------------------------------------|
B|-----------------------------------------------------------------|
G|-----------------------------------------------------------------|
D|-5-5-5-5---------7-7-7-7-9-9-9-9-5-5-5-5---------7-7-7-7-9-9-9-9-|
A|-3-3-3-3-5-5-5-5-5-5-5-5-7-7-7-7-3-3-3-3-5-5-5-5-5-5-5-5-7-7-7-7-|
E|---------3-3-3-3-------------------------3-3-3-3-----------------|
P.M . . . . . . . . . . . . . . . . . . . . . . . . . . . . . . . .


Guitar 1: Dist.
e|--------------------------|
B|-7-7---8-8---10-10--10-10-|
G|-7-7---7-7---7--7---7--7--|
D|-7-7---7-7---7--7---7--7--|
A|-5-5----------------------|
E|--------------------------|

Guitar 2: Dist.
e|-------------------|
B|-------------------|
G|-7-7---------------|
D|-7-7-7-7-7-7-7-7---|
A|-5-5-5-5-5-5-5-5---|
E|--------------------|
       PM......... 


CHORUS
e|-------------------------------------------------------------------|
B|-------------------------------------------------------------------|
G|-------------7-7-5-5-5-5-5-5-5-5-------------7-7-5--5-5---5--5-5---|
D|-5-5-5-5-2-2-7-7-5-5-5-5-5-5-5-5-5-5-5-5-2-2-7-7-5--5-5-5-5--5-5-5-|
A|-5-5-5-5-2-2-5-5-3-3-3-3-3-3-3-3-5-5-5-5-2-2-5-5-3--3-3-5-3--3-3-5-|
E|-3-3-2-2-0-0---------------------3-3-2-2-0-0------------3--------3-|

e|------------------------------|
B|------------------------------|
G|-7-7-7-7-9-9-9-9-7-7-7-7-8-8--|
D|-7-7-7-7-9-9-9-9-7-7-7-7-8-8--|
A|-5-5-5-5-7-7-7-7-5-5-5-5-6-6--|
E|------------------------------|


MIDDLE 8
e|---------------------------------|
B|---------------------------------|
G|---------8-8-8-8---------8-8-8-8-|
D|-8-8-8-8-8-8-8-8-5-5-5-5-8-8-8-8-|  X3
A|-8-8-8-8-6-6-6-6-5-5-5-5-6-6-6-6-|
E|-6-6-6-6---------3-3-3-3---------|

e|-----------------------------------------------------------------|
B|-----------------------------------------------------------------|
G|-----------------8-8-8-8-8-8-8-8-----------------8--8-8--8--8-8--|
D|-8-8-8-8-3-3-3-3-8-8-8-8-8-8-8-8-8-8-8-8-3-3-3-3-8--8-8--8--8-8--|
A|-8-8-8-8-3-3-3-3-6-6-6-6-6-6-6-6-8-8-8-8-3-3-3-3-6--6-6--6--6-6--|
E|-6-6-6-6-1-1-1-1-----------------6-6-6-6-1-1-1-1-----------------|


CHORUS
e|-------------------------------------------------------------------|
B|-------------------------------------------------------------------|
G|-------------7-7-5-5-5-5-5-5-5-5-------------7-7-5--5-5---5--5-5-7-|
D|-5-5-5-5-2-2-7-7-5-5-5-5-5-5-5-5-5-5-5-5-2-2-7-7-5--5-5-5-5--5-5-7-|
A|-5-5-5-5-2-2-5-5-3-3-3-3-3-3-3-3-5-5-5-5-2-2-5-5-3--3-3-5-3--3-3-5-|
E|-3-3-2-2-0-0---------------------3-3-2-2-0-0------------3----------|


END
e|-----|
B|-----|
G|--5~-|
D|--5~-|
A|--3~-|
E|-----|

I tell you the truth when I say that the kingdom is on the way, on the way
I tell you the truth when I say that the kingdom is here today, here today

I think I found it,
An inspiration
I can see a glorious nation

It's over there just above Zion
And it looks like Jerusalem

It's on the way, the date is set
It's here today, but not here yet
Can almost hear, can almost see
It's a banner caught upon the breeze

Upon it is a Lion...

I tell you the truth when I say that the kingdom is on the way, on the way
I tell you the truth when I say that the kingdom is here today, here today
Christ reigns now and don't forget that the kingdom is not yet!

It's getting closer
To fulfillment
But the kingdom began with the advent
He is reigning through his people
The first will be nothing compared to the sequel

No more war, no more crime, no more unemployment line!
And there is Christ upon His seat
Where mercy, truth and justice meet

And He will never falter...

I tell you the truth when I say that the kingdom is on the way, on the way
I tell you the truth when I say that the kingdom is here today, here today
Christ reigns now and don't forget that the kingdom is not yet!

And with one voice, we all will sing
(Yeah yeah yeah)
To the Prince of peace and King of kings
(Yeah yeah yeah)
His reign is everlasting
(Yeah yeah yeah)

I tell you the truth when I say that the kingdom is on the way, on the way
I tell you the truth when I say that the kingdom is here today, here today

I tell you the truth when I say that the kingdom is on the way, on the way
I tell you the truth when I say that the kingdom is here today, here today

Here today.

            
            
Suggest correction
Creating personal tab
Creating personal tab
You can edit any tab online and save it as your Personal.

You can edit, replace or remove any tab part or add personal notes – all changes will be seen only by you.

Personal tabs can be accessed anytime from any device, even offline.
Learn more »
Give kudos to tab author, rate the tab!
1 2 3 4 5
comments
print report bad tab
guest
You may want to rate the tab now too:
select rating
Wanna post a correction for this tab? Suggest correction