Oops, an error
Loading. Please wait.
We have an official A Lot Like Me tab made by UG professional guitarists. Check out the tab »
×
2,218 views 3 this week
1 commentread comment
1 2 3 4 5
x 5
add to favorites
×
Save as Personal and add changes to this tab that will be seen only by you. Learn more ›
×
You can save this tab as Personal to edit and correct it or add notes. All changes will be seen only by you. Learn more »
launch autoscroll
font size
0
reset
guitar tuner
edit
Autoscroll
slow
fast
+/-
esc
set tempo
stop
Author
++++++++++++++++++++++++++++++++
| The Offspring- A Lot Like Me |
++++++++++++++++++++++++++++++++


"Want it, you got it, you're sorry you bought it, you're sliding..."

Tuning: EADG


Intro
1.
G|-------------------------------------------------------------------------|
D|-------------------------------------------------------------------------|
A|-22222222-25555555-00000000-07777777-22222222-25555555-00000000-07777777-|
E|-------------------------------------------------------------------------|

Verse
"How does it feel?"
2.
G|-------------------------------------------------------------------------|
D|-------------------------------------------------------------------------|
A|-22222222-25555555-70000000-0--------22222222-25555555-70000000-0--------|
E|-----------------------------0000000-----------------------------0000000-|

"Where do you run?"
3.
G|-------------------------------------------------------------------------|
D|-------------------------------------------------------------------------|
A|-22222222-25555555-70000000-0--------22222222-25555555-------------------|
E|-----------------------------0000000-------------------22222222-00000~---|

Chorus
"And the rain comes..."
4.
G|-------------------------------------------------------------------------|
D|-------------------------------------------------------------------------|
A|-22222222-25555555-00000000-07777777-22222222-25555555-00000000-07777777-|
E|-------------------------------------------------------------------------|

Verse
"How can you take without giving back?"
5.
G|-------------------------------------------------------------------------|
D|-------------------------------------------------------------------------|
A|-22222222-25555555-70000000-0--------22222222-25555555-70000000-0--------|
E|-----------------------------0000000-----------------------------0000000-|

"How does it feel?"
6.
G|-------------------------------------------------------------------------|
D|-------------------------------------------------------------------------|
A|-22222222-25555555-70000000-0--------22222222-25555555-------------------|
E|-----------------------------0000000-------------------22222222-00000000-|

Chorus
"And the rain comes..."
7.
G|-------------------------------------------------------------------------|
D|-------------------------------------------------------------------------|
A|-22222222-25555555-00000000-07777777-22222222-25555555-00000000-07777777-|
E|-------------------------------------------------------------------------|

"Want it, you got it, you're sorry..."
8.
G|-----------7777777-------------------------------------------------------|
D|-99999999-9--------77777777-7--------------------------------------------|
A|-----------------------------7777777-22222222-25555555-------------------|
E|-------------------------------------------------------33333333-33335555-|

Outro
9.
G|-------------------------------------------------------------------------|
D|-------------------------------------------------------------------------|
A|-22222222-25555555-00000000-07777777-22222222-25555555-00000000-07777777-|
E|-------------------------------------------------------------------------|

Verse
"How can you take without giving back?"
10.
G|-----------------------------------------------------------------------|
D|-----------------------------------------------------------------------|
A|-22222222-25555555-70000000-0--------22222222-25555555-----------------|
E|-----------------------------0000000-------------------33333333-33335x-|

Chorus
"Want it, you got it, you're sorry..."
11.
G|-------------------------------------------------------------------------|
D|-------------------------------------------------------------------------|
A|-22222222-25555555-00000000-07777777-22222222-25555555-00000000-07777777-|--x2
E|-------------------------------------------------------------------------|

"And the rain comes..."
12.
G|-------------------------------------------------------------------------|
D|-------------------------------------------------------------------------|
A|-22222222-25555555-00000000-07777777-22222222-25555555-00000000-07777777-|--x2
E|-------------------------------------------------------------------------|

"Want it, you got it, you're sorry..."
13.
G|-----------7777777-------------------------------------------------------|
D|-99999999-9--------77777777-7--------------------------------------------|
A|-----------------------------7777777-22222222-25555555-------------------|
E|-------------------------------------------------------33333333-33335555-|

Outro
"Me...You look a lot like me..."
14.
G|-------------------------------------------------------------------------|
D|-------------------------------------------------------------------------|
A|-22222222-25555555-70000000-0--------22222222-25555555-70000000-0--------|--Until it fades
E|-----------------------------0000000-----------------------------0000000-|


Lyrics:


How does it feel?
When you have it all?
How can you live?
With nothing at all?

Where do you run?
Where do you go?
When the holes in your truth
Are starting to show?

And the rain comes
And the world is on my head
Crave the sun
But I can’t get out of bed

How can you take?
Without giving back?
How does it work?
When it’s really cracked?

How does it feel
And no wonder
Hearts and minds have been won
How does it feel
And I wonder
How it’s all come undone And the rain comes
And the world is on my head
Crave the sun
But I can’t get out of bed

Want it You got it You’re sorry You bought it You’re sliding
Want it You got it You’re sorry You bought it Can’t hide it
Tell me who do you see
Cause you look a lot like me

How can you take?
Without giving back?
Who do you see?
Cause you look a lot like me



+++++++++++++++++++++++++++++++++
| RaiLeff                       |
| Underground__Dora@Hotmail.Com |
+++++++++++++++++++++++++++++++++

            
            
Suggest correction
Creating personal tab
Creating personal tab
You can edit any tab online and save it as your Personal.

You can edit, replace or remove any tab part or add personal notes – all changes will be seen only by you.

Personal tabs can be accessed anytime from any device, even offline.
Learn more »
comments
print report bad tab
1 comment total.
0 reply
hernandeznathan 10 Mar 02, 2009 07:41 AM

What a great tab! What a great song from a great band!!

guest
You may want to rate the tab now too:
select rating
Wanna post a correction for this tab? Suggest correction