Oops, an error
Loading. Please wait.
We have an official Days Go By tab made by UG professional guitarists. Check out the tab »
×

Days Go By tab

version 7
version 7

Whole song

Interactive

100 views 1 this week
no commentswrite comment
1 2 3 4 5
1 last vote to show rating
add to favorites
×
Save as Personal and add changes to this tab that will be seen only by you. Learn more ›
×
You can save this tab as Personal to edit and correct it or add notes. All changes will be seen only by you. Learn more »
launch autoscroll
font size
0
reset
how to read this tab
guitar tuner
edit
Autoscroll
slow
fast
+/-
esc
set tempo
stop
About this tab version
An acoustic tab that includes intro/lead. Not many good tabs for this song the way they play it acoustically. Was this info helpful? Yes No
Capo on II but tab is relative to no capo...Two guitars is perfect for this with one guitar just doing lead
and power chords the other open.

[Intro I]
e|----------------------------------------------------------|
B|----------------------------------------------------------|
G|-9-9----9p7-7/6-6/2-2p0-----------9p7-7/6-6-6\9---9-9-----|
D|-9-9--0-----0-----------7-7h9p7p0-0-0-0---0-0-----9-9-----|
A|-7-7----------------------------------------------7-7-----|
E|----------------------------------------------------------|

[INTRO II] Power Chords over this are E - D - Am - Bm 
e|-------------------------------------------------------------------------0-0-0-0-----------|
B|-------------------------------------------------------------------------2p0h2p0-----------|
G|--------9-7-------------------9-7-------------------9-7------------------3-3-3-3----7-7----|
D|--7-9-0--0-0-9-0-7/6-0---7-9-0-0-0-9-0-7/6-0---7-9-0-0-0-9-0-7/9/7/6p0---0-0-0-0----7-7----|
A|------------------------------------------------------------------------------------5-5----|
E|-------------------------------------------------------------------------------------------|


[Verse I]- Strum a few times on each chord then arpeggio through notes...

e|--0----------------0-------------------0------------2-2------------------------|
B|--3----------------3-------------------3------------3-3------------------------|
G|--2----------------0-------------------0------------2p0h2-X2---------7-7-------|
D|--0----------------2-------------------0------------0-0--------------7-7-------|
A|--0----------------3-------------------2------------x-x--------------5-5-------|
E|--x----------------x-------------------3------------x-x------------------------|
Run to the light.....save you tonight....yesterdays...time...  


[Chorus]

e|--------0-------3-----2-------------0------0------0-----2--h4-p2 p0 h2--------|
B|--------3-------3-----3-------------1------3------3-----3--3--3--3--3---------|
G|--------0-------0-----2-------------2------0------0-----2--2--2--2--2---------|
D|--------2-------0-----0-------------2------2------0-----0--0--0--0--0---------|
E|--------x-------2-----0-------------0------3------2-----x---------------------|
E|--------x-------3-----x-------------x------x------3-----x---------------------|
All your anger...hurt...matter in the end...Days go by...all try again 

e|-0------3------2--------------0-0-0--0-------3------3-2----------------------------| 
B|-3------3------3--------------1p0h1--3-------3------3-3----------------------------|
G|-0------0------2--------------2-2-2--0-------0------2-2----------------------------|
D|-2------0------0--------------2-2-2--2-------0------0-0----------------------------|
A|-3------2---------------------0-0-0--3-------2------0-0----------------------------|
E|-x------3---------------------x------x-------3-------------------------------------|
   had...lost...memories in the wind...Days go by...all try again    


[INTRO II] Power Chords over this are E - D - Am - Bm 
e|-------------------------------------------------------------------------0-0-0-0-----------|
B|-------------------------------------------------------------------------2p0h2p0-----------|
G|--------9-7-------------------9-7-------------------9-7------------------3-3-3-3----7-7----|
D|--7-9-0--0-0-9-0-7/6-0---7-9-0-0-0-9-0-7/6-0---7-9-0-0-0-9-0-7/9/7/6p0---0-0-0-0----7-7----|
A|------------------------------------------------------------------------------------5-5----|
E|-------------------------------------------------------------------------------------------|

[VERSE 2]


[CHORUS]


[INTRO I] - [INTRO II]


[CHORUS]


[Outro]

         Cadd9 G                D   Am           Cadd9   G                D    Am 
What you had-------and what you lost.    What you had--------and what you lost

   Cadd9   G  D  Am           Cadd9   G  D  Am    Cadd9  G  D
Those days go by.          Those days go by. 



************************************
| x   Dead note
| h   Hammer-on
| p   Pull-off
| /   Slide up
| \   Slide down
************************************

            
            
Suggest correction
Creating personal tab
Creating personal tab
You can edit any tab online and save it as your Personal.

You can edit, replace or remove any tab part or add personal notes – all changes will be seen only by you.

Personal tabs can be accessed anytime from any device, even offline.
Learn more »
Give kudos to tab author, rate the tab!
1 2 3 4 5
comments
print report bad tab
guest
You may want to rate the tab now too:
select rating
Wanna post a correction for this tab? Suggest correction