Oops, an error
Loading. Please wait.

Dui tab

version 2
version 2

Whole song

Interactive

588 views 1 this week
1 commentread comment
1 2 3 4 5
2 more votes to show rating
add to favorites
×
Save as Personal and add changes to this tab that will be seen only by you. Learn more ›
×
You can save this tab as Personal to edit and correct it or add notes. All changes will be seen only by you. Learn more »
launch autoscroll
font size
0
reset
how to read this tab
guitar tuner
edit
Autoscroll
slow
fast
+/-
esc
set tempo
stop
Author
Difficulty
                                    DUI                                     


                                                               The Offspring
Lead



             >           >              >                          
             E  E  E  E  E  E  E  E     E  E  E  E  E  E  E   E    
E||-------|--------------------------|----------------------------|
B||-------|--------------------------|----------------------------|
G||-------|--------------7--7--x--x--|--9--9--x--x----------------|
D||-------|--9--9--x--x--7--7--x--x--|--9--9--x--x--7--7--7S--8S--|
A||-------|--9--9--x--x--5--5--x--x--|--7--7--x--x--7--7--7S--8S--|
E||-------|--7--7--x--x--------------|--------------5--5--5S--6S--|


  >           >              >                         
  E  E  E  E  E  E  E  E     E  E  E  E  E  E  E   E   
--------------------------|---------------------------|
--------------------------|---------------------------|
--------------7--7--x--x--|--9--9--x--x---------------|
--9--9--x--x--7--7--x--x--|--9--9--x--x--7--7--7S--8--|
--9--9--x--x--5--5--x--x--|--7--7--x--x--7--7--7S--8--|
--7--7--x--x--------------|--------------5--5--5S--6--|


  >                                          >        
  Q    H.                E   E   E  Q     E  E   E    
--7----7~------------|--10p--7------7--------7S--6S--|
--7----7-------------|----------10-------10--7S--6S--|
---------------------|-------------------------------|
---------------------|-------------------------------|
---------------------|-------------------------------|
---------------------|-------------------------------|


      >        >                                             
                              |---3---|                      
  E   E  E  E  E  E  Q        E   E   E   E  E  E  Q     E   
--6S--7--7--7--7--7--7-----|--------------------------------|
--6S--7--7--7--7--7--7S----|--5h--7p--5h--------------------|
---------------------------|--------------7-----4--LS----0--|
---------------------------|-----------------7--------------|
---------------------------|--------------------------------|
---------------------------|--------------------------------|


  ^  PM PM    ^  PM PM       ^  PM PM    ^  PM PM  PM   
  E  E  E  E  E  E  E  E     E  E  E  E  E  E  E   E    
--------------------------|----------------------------|
--------------------------|----------------------------|
--------------------7-----|--------9-------------------|
--------9-----x--x--7--x--|--x--x--9--x--------7S--8/--|
--x--x--9--x--5--5--5--x--|--7--7--7--x--x--x--7S--8/--|
--7--7--7--x--------------|--------------5--5--5S--6S--|


   ^  PM PM    ^  PM PM       ^  PM PM    ^  PM PM  PM   
   E  E  E  E  E  E  E  E     E  E  E  E  E  E  E   E    
---------------------------|----------------------------|
---------------------------|----------------------------|
---------------------7-----|--------9-------------------|
---------9-----x--x--7--x--|--x--x--9--x--------7S--8/--|
--/x--x--9--x--5--5--5--x--|--7--7--7--x--x--x--7S--8/--|
---7--7--7--x--------------|--------------5--5--5S--6S--|


   ^  PM PM    ^  PM PM       ^  PM PM    ^  PM PM  PM   
   E  E  E  E  E  E  E  E     E  E  E  E  E  E  E   E    
---------------------------|----------------------------|
---------------------------|----------------------------|
---------------------7-----|--------9-------------------|
---------9-----x--x--7--x--|--x--x--9--x--------7S--8/--|
--/x--x--9--x--5--5--5--x--|--7--7--7--x--x--x--7S--8/--|
---7--7--7--x--------------|--------------5--5--5S--6S--|


   ^  PM PM    ^  PM PM       ^  PM PM    ^  PM          
   E  E  E  E  E  E  E  E     E  E  E  E  E  E  E   E    
---------------------------|----------------------------|
---------------------------|----------------------------|
---------------------7-----|--------9-------------------|
---------9-----x--x--7--x--|--x--x--9--x--------7S--8S--|
--/x--x--9--x--5--5--5--x--|--7--7--7--x--x--x--7S--8S--|
---7--7--7--x--------------|--------------5--5--5S--6S--|


  >                                    >                
  Q    Q     Q    Q         E  E  E    Q    E  E   E    
------------------------|------------------------------|
------------------------|------------------------------|
------------------------|--/7--7--7/-------------------|
--9----9S----5----5S----|---7--7--7S---7----7--7S--8S--|
--9----9S----5----5S----|---5--5--5S---7----7--7S--8S--|
--7----7S----3----3/----|-------------/5----5--5S--6S--|


  Q    Q     Q    Q         E  E  E    Q    E  E   E    
------------------------|------------------------------|
------------------------|------------------------------|
------------------------|--/7--7--7/-------------------|
--9----9S----5----5S----|---7--7--7S---7----7--7S--8S--|
--9----9S----5----5S----|---5--5--5S---7----7--7S--8S--|
--7----7S----3----3/----|-------------/5----5--5S--6S--|


  Q    Q     Q    Q         E  E  E    Q    E  E   E    
------------------------|------------------------------|
------------------------|------------------------------|
------------------------|--/7--7--7/-------------------|
--9----9S----5----5S----|---7--7--7S---7----7--7S--8S--|
--9----9S----5----5S----|---5--5--5S---7----7--7S--8S--|
--7----7S----3----3/----|-------------/5----5--5S--6S--|


                            >                                              
  Q    Q     Q    Q         Q    Q    H           Q    Q      E  Q     E   
------------------------|----------------------|--------------------------|
------------------------|----------------------|--------------------------|
------------------------|--/7------------------|-------------\7--7S----9--|
--9----9S----5----5S----|---7------------------|--9----9S-----7--7S----9--|
--9----9S----5----5S----|---5------------------|--9----9S-----5--5S----7--|
--7----7S----3----3/----|----------------------|--7----7\-----------------|


  E  E  Q      E  E  E   E      Q    Q      E  Q     E   
-----------------------------|--------------------------|
-----------------------------|--------------------------|
--L--9--9\-------------------|-------------\7--7S----9--|
--L--9--9S-----7--7--7S--8S--|--9----9S-----7--7S----9--|
--L--7--7\----\7--7--7S--8S--|--9----9S-----5--5S----7--|
--------------\5--5--5S--6S--|--7----7\-----------------|


  E  E  Q      E  E  E   E     Q    Q      E  Q     E   
----------------------------|--------------------------|
----------------------------|--------------------------|
--L--9--9\------------------|-------------\7--7S----9--|
--L--9--9S-----7--7--7S--8--|--9----9S-----7--7S----9--|
--L--7--7\-----7--7--7S--8--|--9----9S-----5--5S----7--|
--------------\5--5--5S--6--|--7----7\-----------------|


  E  E  Q      E  E  E   E     Q    Q      E  Q     E   
----------------------------|--------------------------|
----------------------------|--------------------------|
--L--9--9\------------------|-------------\7--7S----9--|
--L--9--9S-----7--7--7S--8--|--9----9S-----7--7S----9--|
--L--7--7\----\7--7--7S--8--|--9----9S-----5--5S----7--|
--------------\5--5--5S--6--|--7----7\-----------------|


  E  E  E   Q     E  E  E      E   E  E  E   E   E  E  E    
-----------12S----5--5--5S--|--6S--7--7--7S--6S--7--7--7S--|
-----------12S----5--5--5S--|--6S--7--7--7S--6S--7--7--7S--|
--L--9--9-------------------|------------------------------|
--L--9--9-------------------|------------------------------|
--L--7--7-------------------|------------------------------|
----------------------------|------------------------------|


                                       >        >           
  E   E  E    Q     E   E   E      E   E  E  E  E  E  Q     
--6S--7--7h--10p----7-----------|--------------------------|
--6S--7--7-------------10p--7S--|--6S--7--7--7--7--7--7----|
--------------------------------|--------------------------|
--------------------------------|--------------------------|
--------------------------------|--------------------------|
--------------------------------|--------------------------|


                                       ^                                    
  |--3--|                                                                   
  E  E  E  E  E  H             Q       H         Q        W                 
---------------------------|--(4)S----11---------L\----|-------------------|
--7--5-----5---------------|--(5)S----12---------L\----|-------------------|
--------7--------4~--------|---4S-----11---------L\----|-------------------|
--------------7------------|---------------------------|-------------------|
---------------------------|---------------------------|-------------------|
---------------------------|---------------------------|-------------------|


  PM PM PM    PM PM PM       PM PM PM    PM PM PM  PM   
  E  E  E  E  E  E  E  E     E  E  E  E  E  E  E   E    
--------------------------|----------------------------|
--------------------------|----------------------------|
--------------------7-----|--------9-------------------|
--------9-----7--7--7--x--|--9--9--9--x--------7S--8/--|
--9--9--9--x--5--5--5--x--|--7--7--7--x--7--7--7S--8S--|
--7--7--7--x--------------|--------------5--5--5S--6S--|


  PM PM PM    PM PM PM       PM PM PM    PM PM PM  PM   
  E  E  E  E  E  E  E  E     E  E  E  E  E  E  E   E    
--------------------------|----------------------------|
--------------------------|----------------------------|
--------------------7-----|--------9-------------------|
--------9-----7--7--7--x--|--9--9--9--x--------7S--8/--|
--9--9--9--x--5--5--5--x--|--7--7--7--x--7--7--7S--8S--|
--7--7--7--x--------------|--------------5--5--5S--6S--|


  PM PM PM    PM PM PM       PM PM PM    PM PM PM  PM   
  E  E  E  E  E  E  E  E     E  E  E  E  E  E  E   E    
--------------------------|----------------------------|
--------------------------|----------------------------|
--------------------7-----|--------9-------------------|
--------9-----7--7--7--x--|--9--9--9--x--------7S--8/--|
--9--9--9--x--5--5--5--x--|--7--7--7--x--7--7--7S--8S--|
--7--7--7--x--------------|--------------5--5--5S--6S--|


  PM PM PM    PM PM PM       PM PM PM    PM PM PM  PM   
  E  E  E  E  E  E  E  E     E  E  E  E  E  E  E   E    
--------------------------|----------------------------|
--------------------------|----------------------------|
--------------------7-----|--------9-------------------|
--------9-----7--7--7--x--|--9--9--9--x--------7S--8/--|
--9--9--9--x--5--5--5--x--|--7--7--7--x--7--7--7S--8S--|
--7--7--7--x--------------|--------------5--5--5S--6S--|


  PM PM PM    PM PM PM       PM PM PM    PM PM PM  PM   
  E  E  E  E  E  E  E  E     E  E  E  E  E  E  E   E    
--------------------------|----------------------------|
--------------------------|----------------------------|
--------------------7-----|--------9-------------------|
--------9-----7--7--7--x--|--9--9--9--x--------7S--8/--|
--9--9--9--x--5--5--5--x--|--7--7--7--x--7--7--7S--8S--|
--7--7--7--x--------------|--------------5--5--5S--6S--|


  PM PM PM    PM PM PM       PM PM PM    PM PM PM  PM   
  E  E  E  E  E  E  E  E     E  E  E  E  E  E  E   E    
--------------------------|----------------------------|
--------------------------|----------------------------|
--------------------7-----|--------9-------------------|
--------9-----7--7--7--x--|--9--9--9--x--------7S--8/--|
--9--9--9--x--5--5--5--x--|--7--7--7--x--7--7--7S--8S--|
--7--7--7--x--------------|--------------5--5--5S--6S--|


  PM PM PM    PM PM PM       PM PM PM    PM PM PM  PM   
  E  E  E  E  E  E  E  E     E  E  E  E  E  E  E   E    
--------------------------|----------------------------|
--------------------------|----------------------------|
--------------------7-----|--------9-------------------|
--------9-----7--7--7--x--|--9--9--9--x--------7S--8/--|
--9--9--9--x--5--5--5--x--|--7--7--7--x--7--7--7S--8S--|
--7--7--7--x--------------|--------------5--5--5S--6S--|


  PM PM PM    PM PM PM       PM PM PM    PM PM PM  PM   
  E  E  E  E  E  E  E  E     E  E  E  E  E  E  E   E    
--------------------------|----------------------------|
--------------------------|----------------------------|
--------------------7-----|--------9-------------------|
--------9-----7--7--7--x--|--9--9--9--x--------7S--8S--|
--9--9--9--x--5--5--5--x--|--7--7--7--x--7--7--7S--8S--|
--7--7--7--x--------------|--------------5--5--5S--6S--|


  Q    Q     Q    Q         E  E  E  Q    E  E   E    
------------------------|----------------------------|
------------------------|----------------------------|
------------------------|--/7--7--7------------------|
--9----9S----5----5S----|---7--7--7--7----7--7S--8S--|
--9----9S----5----5S----|---5--5--5--7----7--7S--8S--|
--7----7S----3----3/----|------------5----5--5S--6S--|


  Q    Q     Q    Q         E  E  E  Q    E  E   E    
------------------------|----------------------------|
------------------------|----------------------------|
------------------------|--/7--7--7------------------|
--9----9S----5----5S----|---7--7--7--7----7--7S--8S--|
--9----9S----5----5S----|---5--5--5--7----7--7S--8S--|
--7----7S----3----3/----|------------5----5--5S--6S--|


  Q    Q     Q    Q         E  E  E  Q    E  E   E    
------------------------|----------------------------|
------------------------|----------------------------|
------------------------|--/7--7--7------------------|
--9----9S----5----5S----|---7--7--7--7----7--7S--8S--|
--9----9S----5----5S----|---5--5--5--7----7--7S--8S--|
--7----7S----3----3/----|------------5----5--5S--6S--|


                            >                                              
  Q    Q     Q    Q         Q    Q    H           Q    Q      E  Q     E   
------------------------|----------------------|--------------------------|
------------------------|----------------------|--------------------------|
------------------------|--/7------------------|-------------\7--7S----9--|
--9----9S----5----5S----|---7------------------|--9----9S-----7--7S----9--|
--9----9S----5----5S----|---5------------------|--9----9S-----5--5S----7--|
--7----7S----3----3/----|----------------------|--7----7\-----------------|


  E  E  Q      E  E  E   E      Q    Q      E  Q     E   
-----------------------------|--------------------------|
-----------------------------|--------------------------|
--L--9--9\-------------------|-------------\7--7S----9--|
--L--9--9S-----7--7--7S--8S--|--9----9S-----7--7S----9--|
--L--7--7\----\7--7--7S--8S--|--9----9S-----5--5S----7--|
--------------\5--5--5S--6S--|--7----7\-----------------|


  E  E  Q      E  E  E   E     Q    Q      E  Q     E   
----------------------------|--------------------------|
----------------------------|--------------------------|
--L--9--9\------------------|-------------\7--7S----9--|
--L--9--9S-----7--7--7S--8--|--9----9S-----7--7S----9--|
--L--7--7\----\7--7--7S--8--|--9----9S-----5--5S----7--|
--------------\5--5--5S--6--|--7----7\-----------------|


  E  E  Q      E  E  E   E     Q    Q      E  Q     E   
----------------------------|--------------------------|
----------------------------|--------------------------|
--L--9--9\------------------|-------------\7--7S----9--|
--L--9--9S-----7--7--7S--8--|--9----9S-----7--7S----9--|
--L--7--7\----\7--7--7S--8--|--9----9S-----5--5S----7--|
--------------\5--5--5S--6--|--7----7\-----------------|


  E  E  Q      E  E  E   E      Q    Q    E  Q      E   
-----------------------------|-------------------------|
-----------------------------|-------------------------|
--L--9--9\-------------------|---------------------\7--|
--L--9--9S-----7--7--7S--8S--|--9----9----9--9S-----7--|
--L--7--7\----\7--7--7S--8S--|--9----9----9--9S-----5--|
--------------\5--5--5S--6S--|--7----7----7--7\--------|


  E  E  E  Q    E  E  E       Q    Q    E  Q     E   
--------------------------|-------------------------|
--------------------------|-------------------------|
--L--7--7--7----7--7--L\--|-------------------------|
--L--7--7--7----7--7--LS--|---5----5----5--5S----7--|
--L--5--5--5----5--5--L\--|--\5----5----5--5S----7--|
----------------------0---|--\3----3----3--3S----5--|


  E  E  E  Q    E  E  E       Q    Q    E  Q      E   
--------------------------|--------------------------|
--------------------------|--------------------------|
--------------------------|----------------------\7--|
--L--7--7--7----7--7--LS--|---9----9----9--9S-----7--|
--L--7--7--7----7--7--LS--|---9----9----9--9S-----5--|
--L--5--5--5----5--5--0---|--/7----7----7--7\--------|


  E  E  E  E  E  E  Q         Q     E   E   E   E   E   E   
--------------------------|--------------------------------|
--------------------------|--------------------------------|
--L--7--7--7--7--7--7S----|--11----11--11--11--11--11--11--|
--L--7--7--7--7--7--7S----|--11----11--11--11--11--11--11--|
--L--5--5--5--5--5--5S----|---9-----9---9---9---9---9---9--|
--------------------------|--------------------------------|


   ^                                                        
   Q    Q    H            E   E    E   E   E   E    E   E   
----------------------|--10---------------10---------------|
----------------------|------12p--10--12------12p--10--12--|
--11------------------|------------------------------------|
--11------------------|------------------------------------|
---9------------------|------------------------------------|
----------------------|------------------------------------|


                            ^        ^     ^                 
                                                   |--3--|   
   E   E    E   Q.      E   E     E  E  E  E  Q    E  E  E   
--10---------------------------|----------------------------|
------12p--10--12~------5S--7--|--7--7--7--7--7----7--5-----|
-------------------------------|-------------------------7--|
-------------------------------|----------------------------|
-------------------------------|----------------------------|
-------------------------------|----------------------------|


  >            PM >  PM PM    >  PM >  PM >         ^    
  E  E   Q     E  E  E  E     E  E  E  E  E  Q      E    
---------------------------|----------------------------|
--5------------------------|-----------------7br--------|
---------------------------|-----------7--9---------9~--|
-----7S--9~-------------7--|--9--7--9-------------------|
---------------9--7--9-----|----------------------------|
---------------------------|----------------------------|


        ^       ^           ^           ^            
  Q     E  Q    E  Q        E  E  E  E  E  E  E  E   
-------------------------|--7--7--7--7--7--7--7--7--|
-------------------------|--7--7--7--7--7--7--7--7--|
--L~---------------------|--------------------------|
--------7--9----7--------|--------------------------|
-------------------9~----|--------------------------|
-------------------------|--------------------------|


   ^               ^                                       
   E   E   E   E   E   E   Q        Q    Q     Q    Q      
--10--10--10--10--10--10--10\----|------------------------|
--10--10--10--10--10--10--10\----|------------------------|
---------------------------------|------------------------|
---------------------------------|--9----9S----5----5S----|
---------------------------------|--9----9S----5----5S----|
---------------------------------|--7----7S----3----3/----|


   E  E  E  Q    E  E   E      Q    Q     Q    Q      
----------------------------|------------------------|
----------------------------|------------------------|
--/7--7--7------------------|------------------------|
---7--7--7--7----7--7S--8S--|--9----9S----5----5S----|
---5--5--5--7----7--7S--8S--|--9----9S----5----5S----|
------------5----5--5S--6S--|--7----7S----3----3/----|


   E  E  E  Q    E  E   E      Q    Q     Q    Q      
----------------------------|------------------------|
----------------------------|------------------------|
--/7--7--7------------------|------------------------|
---7--7--7--7----7--7S--8S--|--9----9S----5----5S----|
---5--5--5--7----7--7S--8S--|--9----9S----5----5S----|
------------5----5--5S--6S--|--7----7S----3----3/----|


   E  E  E  Q    E  E   E      Q    Q     Q    Q      
----------------------------|------------------------|
----------------------------|------------------------|
--/7--7--7------------------|------------------------|
---7--7--7--7----7--7S--8S--|--9----9S----5----5S----|
---5--5--5--7----7--7S--8S--|--9----9S----5----5S----|
------------5----5--5S--6S--|--7----7S----3----3/----|


   >                                              
   Q    Q    H           Q    Q      E  Q     E   
----------------------|--------------------------|
----------------------|--------------------------|
--/7------------------|-------------\7--7S----9--|
---7------------------|--9----9S-----7--7S----9--|
---5------------------|--9----9S-----5--5S----7--|
----------------------|--7----7\-----------------|


  E  E  Q      E  E  E   E      Q    Q      E  Q     E   
-----------------------------|--------------------------|
-----------------------------|--------------------------|
--L--9--9\-------------------|-------------\7--7S----9--|
--L--9--9S-----7--7--7S--8S--|--9----9S-----7--7S----9--|
--L--7--7\----\7--7--7S--8S--|--9----9S-----5--5S----7--|
--------------\5--5--5S--6S--|--7----7\-----------------|


  E  E  Q      E  E  E   E     Q    Q      E  Q     E   
----------------------------|--------------------------|
----------------------------|--------------------------|
--L--9--9\------------------|-------------\7--7S----9--|
--L--9--9S-----7--7--7S--8--|--9----9S-----7--7S----9--|
--L--7--7\----\7--7--7S--8--|--9----9S-----5--5S----7--|
--------------\5--5--5S--6--|--7----7\-----------------|


  E  E  Q      E  E  E   E     Q    Q      E  Q     E   
----------------------------|--------------------------|
----------------------------|--------------------------|
--L--9--9\------------------|-------------\7--7S----9--|
--L--9--9S-----7--7--7S--8--|--9----9S-----7--7S----9--|
--L--7--7\----\7--7--7S--8--|--9----9S-----5--5S----7--|
--------------\5--5--5S--6--|--7----7\-----------------|


  E  E  Q      E  E  E   E      Q    Q    E  Q      E   
-----------------------------|-------------------------|
-----------------------------|-------------------------|
--L--9--9\-------------------|---------------------\7--|
--L--9--9S-----7--7--7S--8S--|--9----9----9--9S-----7--|
--L--7--7\----\7--7--7S--8S--|--9----9----9--9S-----5--|
--------------\5--5--5S--6S--|--7----7----7--7\--------|


  E  E  E  Q    E  E  E       Q    Q    E  Q     E   
--------------------------|-------------------------|
--------------------------|-------------------------|
--L--7--7--7----7--7--L\--|-------------------------|
--L--7--7--7----7--7--LS--|---5----5----5--5S----7--|
--L--5--5--5----5--5--L\--|--\5----5----5--5S----7--|
----------------------0---|--\3----3----3--3S----5--|


  E  E  E  Q    E  E  E       Q    Q    E  Q      E   
--------------------------|--------------------------|
--------------------------|--------------------------|
--------------------------|----------------------\7--|
--L--7--7--7----7--7--LS--|---9----9----9--9S-----7--|
--L--7--7--7----7--7--LS--|---9----9----9--9S-----5--|
--L--5--5--5----5--5--0---|--/7----7----7--7\--------|


  E  E  E  E  E  E  Q         Q     E   E   E   E   E   E   
--------------------------|--------------------------------|
--------------------------|--------------------------------|
--L--7--7--7--7--7--7S----|--11----11--11--11--11--11--11--|
--L--7--7--7--7--7--7S----|--11----11--11--11--11--11--11--|
--L--5--5--5--5--5--5S----|---9-----9---9---9---9---9---9--|
--------------------------|--------------------------------|


   ^                     ^                                     
   Q    Q    H           W                   W                 
----------------------|-------------------|-------------------|
----------------------|-------------------|-------------------|
--11------------------|--4----------------|--L----------------|
--11------------------|--4----------------|--L----------------|
---9------------------|--2----------------|--L----------------|
----------------------|-------------------|-------------------|


  W                   W                   W                 
-------------------|-------------------|-------------------|
-------------------|-------------------|-------------------|
--L----------------|--L----------------|--L----------------|
--L----------------|--L----------------|--L----------------|
--L----------------|--L----------------|--L----------------|
-------------------|-------------------|-------------------|


  W                   W                  
-------------------|-------------------||
-------------------|-------------------||
--L----------------|--L----------------||
--L----------------|--L----------------||
--L----------------|--L----------------||
-------------------|-------------------||




Duration Legend
---------------
W - whole
H - half
Q - quarter
E - 8th
S - 16th
T - 32nd
X - 64th
. - note dotted
|-n-|  - n-tuplets


Tablature Legend
----------------
L - tied note
x - dead note
g - grace note
(n) - ghost note
> - accentuded note
NH - natural harmonic
AH - artificial harmonic
TH - tapped harmonic
SH - semi harmonic
PH - pitch harmonic
h - hammer on
p - pull off
b - bend
br - bendRelease
pb - preBend
pbr - preBendRelease
brb - bendReleaseBend
\n/ - tremolo bar dip
\n - tremolo bar dive
-/n - tremolo bar Release up
/n\ - tremolo bar inverted dip
/n - tremolo bar return
-\n - tremolo bar Release down
S - shift slide
s - legato slide
/ -  slide into from below or out of upwards
\ -  slide into from above or out of downwards
~ - vibrato
W - wide vibrato
tr - trill
TP - tremolo picking
T - tapping
S - slap
P - pop
< - fade in
^ - brush up
v - brush down

            
            
Suggest correction
Creating personal tab
Creating personal tab
You can edit any tab online and save it as your Personal.

You can edit, replace or remove any tab part or add personal notes – all changes will be seen only by you.

Personal tabs can be accessed anytime from any device, even offline.
Learn more »
Give kudos to tab author, rate the tab!
1 2 3 4 5
comments
print report bad tab
1 comment total.
0 reply
splinteredmind 10 Dec 27, 2010 04:08 AM

better than version one!

guest
You may want to rate the tab now too:
select rating
Wanna post a correction for this tab? Suggest correction