Oops, an error
Loading. Please wait.
We have an official Gotta Get Away tab made by UG professional guitarists. Check out the tab »
×
2,290 views 3 this week
no commentswrite comment
1 2 3 4 5
1 last vote to show rating
add to favorites
×
Save as Personal and add changes to this tab that will be seen only by you. Learn more ›
×
You can save this tab as Personal to edit and correct it or add notes. All changes will be seen only by you. Learn more »
launch autoscroll
font size
0
reset
guitar tuner
backing track
0:00
0:00
edit
Autoscroll
slow
fast
+/-
esc
set tempo
stop
Author
----------------------------------------------------------------------------
                             Gotta Get Away- The Offspring
----------------------------------------------------------------------------

Standard Tuning

Intro:

G|-----------------|---------------------|
D|-----------------|---------------------|
A|-3-4-5-5-5-5-5-5-|---5-7-------7-------|
E|-----------------|-0-----0-0-0---0-0-0-| x1

G|---------------------------------------|
D|---------------------------------------|
A|-5-5-5-5-5-5----5-7-------7------------|
E|--------------0-----0-0-0---0-0-0------| x7

Main Riff:

G|-----------------|--------------------|-----------------|---------------|
D|-----------------|--------------------|-----------------|---------------|
A|-----5-5-----7-7-|----10-10-----12-12-|-----7-7-----8-8-|-7-7-7-8-7-8-7-|
E|-0-0-----0-0-----|-0-0-------0-0------|-0-0-----0-0-----|---------------|

Repeat until Chorus

Chorus:

G|-----------------|-------------------------|
D|-----------------|-------------------------|
A|-7-7-7-7---------|-10-10-10-10-------------|
E|---------8-8-8-8-|-------------10-10-10-10-| x4

Back to Main Riff:

G|-----------------|--------------------|-----------------|--------------|
D|-----------------|--------------------|-----------------|--------------|
A|-----5-5-----7-7-|----10-10-----12-12-|-----7-7-----8-8-|-7-7-7-8-7-8-7|
E|-0-0-----0-0-----|-0-0-------0-0------|-0-0-----0-0-----|--------------|x6

Chorus:

G|-----------------|-------------------------|
D|-----------------|-------------------------|
A|-7-7-7-7---------|-10-10-10-10-------------|
E|---------8-8-8-8-|-------------10-10-10-10-| x6


Main Riff

G|-----------------|--------------------|-----------------|--------------|
D|-----------------|--------------------|-----------------|--------------|
A|-----5-5-----7-7-|----10-10-----12-12-|-----7-7-----8-8-|-7-7-7-8-7-8-7|
E|-0-0-----0-0-----|-0-0-------0-0------|-0-0-----0-0-----|--------------|x4

Chorus till the end:

G|-----------------|-------------------------|
D|-----------------|-------------------------|
A|-7-7-7-7---------|-10-10-10-10-------------|
E|---------8-8-8-8-|-------------10-10-10-10-|





            
            
Suggest correction
Creating personal tab
Creating personal tab
You can edit any tab online and save it as your Personal.

You can edit, replace or remove any tab part or add personal notes – all changes will be seen only by you.

Personal tabs can be accessed anytime from any device, even offline.
Learn more »
Give kudos to tab author, rate the tab!
1 2 3 4 5
comments
print report bad tab
guest
You may want to rate the tab now too:
select rating
Wanna post a correction for this tab? Suggest correction