Oops, an error
Loading. Please wait.
We have an official Hammerhead tab made by UG professional guitarists. Check out the tab »
×
13,924 views 1 this week
8 commentsread comments
1 2 3 4 5
x 10
add to favorites
×
Save as Personal and add changes to this tab that will be seen only by you. Learn more ›
×
You can save this tab as Personal to edit and correct it or add notes. All changes will be seen only by you. Learn more »
launch autoscroll
font size
0
reset
guitar tuner
backing track
0:00
0:00
edit
Autoscroll
slow
fast
+/-
esc
set tempo
stop
Author
Difficulty
----------------------------------------------------------------------------
			     Hammerhead - Offspring
----------------------------------------------------------------------------

Tabbed By : Kydoodlebob

Tuning: Standard

Bass starts at 0:25 sec.

G|----------------------------------------|-----------------|-----------|
D|----------------------------------------|-----------------|-----------|
A|----------------------------------------|-----------------|-----------|
E|-4-4-4-020-4-4-4-020-4-4-4-020-4-4-4-020|-777777777777777-|-4-4-4-020-|

G|-------------------------|-----------------|--------------------|
D|-------------------------|-----------------|--------------------|
A|-------------------------|-----------------|--------------------|
E|-020-4-4-4-020-4-4-4-020-|-777777777777777-|-4-4-4-020-4-4-4-020|

G|--------------------------------------------------------------------------|
D|--------------------------------------------------------------------------|
A|-4-4-4-9---------4-4-4-9---------4-4-4-9----------------------------------|
E|---------9-44444---------9-44444---------9-444\---------------------------|

G|--------------------------------------------------------------------------|
D|--------------------------------------------------------------------------|
A|---------999999999---------------------------------999999999--------------|
E|44444444-----------999999999999-55555555--44444444-----------999999999999-|

G|--------------------------------------------------------------------------|
D|--------------------------------------------------------------------------|
A|---------999999999---------------------------------999999999--------------|
E|44444444-----------999999999999-55555555--44444444-----------999999999999-|

G|----------------------------------------|-----------------|-----------|
D|----------------------------------------|-----------------|-----------|
A|----------------------------------------|-----------------|-----------|
E|-4-4-4-020-4-4-4-020-4-4-4-020-4-4-4-020|-777777777777777-|-4-4-4-020-|

G|-------------------------|-----------------|--------------------|
D|-------------------------|-----------------|--------------------|
A|-------------------------|-----------------|--------------------|
E|-020-4-4-4-020-4-4-4-020-|-777777777777777-|-4-4-4-020-4-4-4-020|

G|--------------------------------------------------------------------------|
D|--------------------------------------------------------------------------|
A|-4-4-4-9---------4-4-4-9---------4-4-4-9----------------------------------|
E|---------9-44444---------9-44444---------9-444\---------------------------|

G|--------------------------------------------------------------------------|
D|--------------------------------------------------------------------------|
A|---------999999999---------------------------------999999999--------------|
E|44444444-----------999999999999-55555555--44444444-----------999999999999-|

G|--------------------------------------------------------------------------|
D|--------------------------------------------------------------------------|
A|---------999999999---------------------------------999999999--------------|
E|44444444-----------999999999999-55555555--44444444-----------999999999999-|

G|--------------------------------------------------------------------------|
D|--------------------------------------------------------------------------|
A|44-0-22-0-77-2-0-2-3------------------------------------------------------|
E|--------------------------------------------------------------------------|

Ending Part of Bass Solo

G|--------------------------------------------------------------------------|
D|--------------------------------------------------------------------------|
A|4444/16161616161616-------------------------------------------------------|
E|--------------------------------------------------------------------------|

Play this until the ending of the song.


| /  slide up
| \  slide down
| h  hammer-on
| p  pull-off
| ~  vibrato
| +  harmonic
| x  Mute note
============================================================================

            
            
Suggest correction
Creating personal tab
Creating personal tab
You can edit any tab online and save it as your Personal.

You can edit, replace or remove any tab part or add personal notes – all changes will be seen only by you.

Personal tabs can be accessed anytime from any device, even offline.
Learn more »
comments
print report bad tab
8 comments total. Showing first comments.
0 reply
kydoodlebob 103 May 13, 2008 04:40 PM

Yea I'm the first to tab this on bass and it's probably not perfect espicaly the part right before the "bass solo" part. Tell me how you like it

0 reply
IbanezBassman 140 May 24, 2008 03:23 AM

It's bassically the guitar with open a when they play mute notes.

0 reply
kydoodlebob 103 May 25, 2008 11:59 AM

kinda yea

guest
You may want to rate the tab now too:
select rating
Wanna post a correction for this tab? Suggest correction