Oops, an error
Loading. Please wait.
We have an official Hammerhead tab made by UG professional guitarists. Check out the tab »
×
1,338 views 1 this week
no commentswrite comment
1 2 3 4 5
2 more votes to show rating
add to favorites
×
Save as Personal and add changes to this tab that will be seen only by you. Learn more ›
×
You can save this tab as Personal to edit and correct it or add notes. All changes will be seen only by you. Learn more »
launch autoscroll
font size
0
reset
guitar tuner
backing track
0:00
0:00
edit
Autoscroll
slow
fast
+/-
esc
set tempo
stop
Author
+++++++++++++++++++++++++++++
| The Offspring- Hammerhead |
+++++++++++++++++++++++++++++

NOTE* I Guarantee you guys this is perfect, you know me ;)

"Bang band it hammers in my head..."

Tuning: EADG


Intro
1.
G|---------------------------------|
D|-4/6~--4-4/6~--4-4/6~--4-4/6~--4-|
A|---------------------------------|--x4
E|---------------------------------|

2.
G|-----------------------------------------|
D|-----------------------------------------|
A|-----------------------------------------|
E|-4-4-4-22~-4-4-4-22~-4-4-4-22~-4-4-4-22~-|

Verse
"I am the one, camouflage and guns..."
3.
G|----------------------------------------------------------------------------------|
D|----------------------------------------------------------------------------------|
A|-2~-----2222~-----2222~-----2222~---46424-----------------------------------------|
E|------------------------------------------4-4-4-22~-4-4-4-22~-4-4-4-22~-4-4-4-22~-|

"Authority vested in me..."
4.
G|--------------------------------------------------------------|
D|--------------------------------------------------------------|
A|-2~-----2222~-----2222~-----2222~---46424---------------------|
E|------------------------------------------4-4-4-22~-4-4-4-22~-|

Pre-Chorus
"Through this doorway whats on the other side..."
5.
G|-------------------------------------------------------------------------------------------|
D|-------------------------------------------------------------------------------------------|
A|-4~--4-7-6-4-----------2-4~--4-7-6-4-----------2-44444-444-44444-444-66666-666-------------|
E|-------------444444444---------------444444444---------------------------------2~-2~-2~-2~-|

Chorus
"Oh, take the life that others may live..."
6.
G|---------------------------------------------|
D|---------------------------------------------|
A|------------7-7777-777-2-2222-222-6-6666-666-|--x3
E|-4-4444-444----------------------------------|

"Its playing over and over in my head..."
7.
G|----------------------------------------------|
D|----------------------------------------------|
A|------------7-7777-777-2-2222-222-6~-6~-6~-6~-|
E|-4-4444-444-----------------------------------|

Outro
8.
G|-----------------------------------------|
D|-----------------------------------------|
A|-----------------------------------------|
E|---------------------4-4-4-22~-4-4-4-22~-|

Verse
"Stay the course, reasonable force..."
9.
G|----------------------------------------------------------------------------------|
D|----------------------------------------------------------------------------------|
A|-2~-----2222~-----2222~-----2222~---46424-----------------------------------------|
E|------------------------------------------4-4-4-22~-4-4-4-22~-4-4-4-22~-4-4-4-22~-|

"Smoke and dust, enemies are crushed..."
10.
G|--------------------------------------------------------------|
D|--------------------------------------------------------------|
A|-2~-----2222~-----2222~-----2222~---46424---------------------|
E|------------------------------------------4-4-4-22~-4-4-4-22~-|

Pre-Chorus
"Through this doorway whats on the other side..."
11.
G|-------------------------------------------------------------------------------------------|
D|-------------------------------------------------------------------------------------------|
A|-4~--4-7-6-4-----------2-4~--4-7-6-4-----------2-44444-444-44444-444-66666-666-------------|
E|-------------444444444---------------444444444---------------------------------2~-2~-2~-2~-|

Chorus
"Oh, take the life that others may live..."
12.
G|---------------------------------------------|
D|---------------------------------------------|
A|------------7-7777-777-2-2222-222-6-6666-666-|--x3
E|-4-4444-444----------------------------------|

"Its playing over and over in my head..."
13.
G|----------------------------------------------------------|
D|----------------------------------------------------------|
A|------------7-7777-777-2-2222-222-6~-6~-6~-6~-7~-7~-6~-6~-|
E|-4-4444-444-----------------------------------------------|

Outro
14.
G|--------------------------------------------------------------------------------------|
D|----------222---------------222---------------222-------------------------------------|
A|-44x-42202---2~--2344x-42202---2~--2344x-42202---2~--234~-4~-4~-4~/-1616161616161616\-|
E|----------------4-----------------4-----------------4---------------------------------|

15.
G|----------------------------------------------------------------------------------------|
D|-----------222----------------222----------------222------------------------------------|
A|-44x-422x-2---2~--2344x-422x-2---2~--2344x-422x-2---2~--234~-4~-4~-4~/1616161616161616\-|
E|-----------------4------------------4------------------4--------------------------------|

16.
G|------------------------------------------------------------------------------------------|
D|-----------222----------------222----------------222--------------------------------------|
A|-44x-422x-2---2~--2344x-422x-2---2~--2344x-422x-2---2~--2344444x--44444x--44444x--44444x--|
E|-----------------4------------------4------------------4----------------------------------|

Bridge
"Bang band it hammers in my head..."
17.
G|----------------------------------------------------------------------------------|
D|-----------222----------------222----------------222------------------------------|
A|-44x-422x-2---2~--2344x-422x-2---2~--2344x-422x-2---2~--234~-4~-4~-4~-4~-4~-4~-4~-|
E|-----------------4------------------4------------------4--------------------------|

"Yeah, though I walk through the valley of the shadow of death..."
18.
G|--------------------------------------------------------------------------------------|
D|-----------222----------------222----------------222----------------------------------|
A|-44x-422x-2---2~--2344x-422x-2---2~--2344x-422x-2---2~--234~-4~-4~-4~/16~-16~-16~-16~-|
E|-----------------4------------------4------------------4------------------------------|

"And you can all hide behind your desks now..."
19.
G|----------------------------------------------------------------------------------------|
D|-----------222----------------222----------------222------------------------------------|
A|-44x-422x-2---2~--2344x-422x-2---2~--2344x-422x-2---2~--234~-4~-4~-4~/1616161616161616\-|
E|-----------------4------------------4------------------4--------------------------------|

"My aim is true!!!"
20.
G|----------------------------------------------------------------------------------|
D|-----------222----------------222----------------222------------------------------|
A|-44x-422x-2---2~--2344x-422x-2---2~--2344x-422x-2---2~--234~-4~-4~-4~-4~-4~-4~-4~-|
E|-----------------4------------------4------------------4--------------------------|

Outro
21.
G|-----------------------------------------------------------------------------|
D|-----------------------------------------------------------------------------|
A|-44x-------44x-------44x-------44x-------44444444-44444444-44444444-44444444-|
E|-----------------------------------------------------------------------------|

22.
G|-----------------------------------------------|
D|-----------------------------------------------|
A|-44444444-44444444-44444444-44444444-4~--------|
E|-----------------------------------------------|


Lyrics:


I am the one
Camouflage and guns
Risk my life
To keep my people from harm

Authority
Vested in me
I sacrifice
With my brothers in arms

Through this doorway
What's on the other side
Never knowing
Exactly what I'll find
Locked and loaded
Voices screaming
Let's go! Come on do it!
Here we go

Oh, take a life
That others may live
Oh, that's just the way it goes
Oh, shut my eyes
It hammers in my head
Where it'll end
Nobody knows

Oh, take this life
That ten others may live
Oh, that's just the way it goes
It's playing over and over in my head
Where it'll end
Nobody knows

Stay the course
Reasonable force
I believe I serve a greater good

Smoke and dust
Enemies are crushed
Nothing left
Where a man once stood

But I'm just doing what I'm told

Bang band it hammers in my head...
In my head, in my head...

Yeah, though I walk through the valley of the shadow of death,
I will fear no evil: for Thou art with me
Locked and loaded
Gonna find my truth
Now I'm busting through
All hell breaks loose

And you can all hide behind your desks now
And you can cry, 'teacher come help me!'
Through you all
My aim is true!



+++++++++++++++++++++++++++++++++
| RaiLeff                       |
| Underground__Dora@Hotmail.Com |
+++++++++++++++++++++++++++++++++

            
            
Suggest correction
Creating personal tab
Creating personal tab
You can edit any tab online and save it as your Personal.

You can edit, replace or remove any tab part or add personal notes – all changes will be seen only by you.

Personal tabs can be accessed anytime from any device, even offline.
Learn more »
Give kudos to tab author, rate the tab!
1 2 3 4 5
comments
print report bad tab
guest
You may want to rate the tab now too:
select rating
Wanna post a correction for this tab? Suggest correction