Oops, an error
Loading. Please wait.

I Got A Right bass

version 2
version 2

Whole song

306 views 1 this week
no commentswrite comment
1 2 3 4 5
3 more votes to show rating
add to favorites
×
Save as Personal and add changes to this tab that will be seen only by you. Learn more ›
×
You can save this tab as Personal to edit and correct it or add notes. All changes will be seen only by you. Learn more »
launch autoscroll
font size
0
reset
guitar tuner
edit
Autoscroll
slow
fast
+/-
esc
set tempo
stop
Author
++++++++++++++++++++++++++++++++
| The Offspring- I Got A Right |
++++++++++++++++++++++++++++++++


"I got a right to sing..."

Tuning: EADG


Intro
1.
G|-----------------------------8h9~----|
D|-------------------------------------|
A|-3~/4/15~--------------7/------------| Slowly slide the fretboard
E|-------------3~/15~------------------|

2.
G|---------------------------|
D|-2-22-22~-----2-22-22~-----|
A|----------3-3----------3-3-|
E|-----------3------------3--|

Verse
"Anytime I want I got a right to move..."
3.
G|-----------------------------------------------------------------------------------------------|
D|-2-22-22~-------------2-22-22~-----2-22-22~-----2-22-22~-------------2-22-22~-----2-22-22~-----|
A|----------3-3-5-0-5-0----------3-3----------3-3----------3-3-5-0-5-0----------3-3----------3-3-|
E|-----------3--------------------3------------3------------3--------------------3------------3--|

Chorus
"Cus I got a right, right to move..."
4.
G|-----1234----------------------------------1234-----------------------------|
D|-2-2------0-0-4567---------------------2-2------0-0-4567--------------------|
A|--2--------0-------333-------555--------2--------0-------333-------22222222-|
E|-----------------------3-333-----5-555-----------------------3-333----------|

Outro
5.
G|-----------------------------------------------------|
D|-2-22-22~-----2-22-22~-----2-22-22~-----2-22-22~-----|
A|----------3-3----------3-3----------3-3----------3-3-|
E|-----------3------------3------------3------------3--|

Verse
"Anytime I want I got a right to sing..."
6.
G|-----------------------------------------------------------------------------------------------|
D|-2-22-22~-------------2-22-22~-----2-22-22~-----2-22-22~-------------2-22-22~-----2-22-22~-----|
A|----------3-3-5-0-5-0----------3-3----------3-3----------3-3-5-0-5-0----------3-3----------3-3-|
E|-----------3--------------------3------------3------------3--------------------3------------3--|

Chorus
"Cus I got a right, right to sing..."
7.
G|-----1234----------------------------------1234-----------------------------|
D|-2-2------0-0-4567---------------------2-2------0-0-4567--------------------|
A|--2--------0-------333-------555--------2--------0-------333-------2~-------|
E|-----------------------3-333-----5-555-----------------------3-333----------|

Bridge
8.
G|-----------------------------------------------------|
D|-2-22-22~-----2-22-22~-----2-22-22~-----2-22-22~-----|
A|----------3-3----------3-3----------3-3----------3-3-|--x2
E|-----------3------------3------------3------------3--|

9.
G|-----------------------------------------------------|
D|-2-22-22~-----2-22-22~-----2-22-22~-----2-22-22~-----|
A|----------3-3----------3-3----------3-3----------3-3-|
E|-----------3------------3------------3------------3--|

Verse
"Anytime I want I got a right to move..."
10.
G|-----------------------------------------------------------------------------------------------|
D|-2-22-22~-------------2-22-22~-----2-22-22~-----2-22-22~-------------2-22-22~-----2-22-22~-----|
A|----------3-3-5-0-5-0----------3-3----------3-3----------3-3-5-0-5-0----------3-3----------3-3-|
E|-----------3--------------------3------------3------------3--------------------3------------3--|

Chorus
"Cus I got a right, right to move..."
11.
G|-----1234----------------------------------1234-----------------------------|
D|-2-2------0-0-4567---------------------2-2------0-0-4567--------------------|
A|--2--------0-------333-------555--------2--------0-------333-------22222222-|
E|-----------------------3-333-----5-555-----------------------3-333----------|

"I got a feeling..."
12.
G|-----1234----------------------------------1234-----------------------------|
D|-2-2------0-0-4567---------------------2-2------0-0-4567--------------------|
A|--2--------0-------333-------555--------2--------0-------333-------2~-------|
E|-----------------------3-333-----5-555-----------------------3-333----------|

Please rate thanks!!


Lyrics:


Anytime I want I got a right to move
No matter what they say
Cus I got a right, right to move
Anytime I want, anytime
Anytime I want I got a right to sing
No matter what they say
Cus I got a right, right to sing
Anytime I want
I got a feeling...



+++++++++++++++++++++++++++++++++
| Raileff                       |
| Underground__Dora@Hotmail.Com |
+++++++++++++++++++++++++++++++++

            
            
Suggest correction
Creating personal tab
Creating personal tab
You can edit any tab online and save it as your Personal.

You can edit, replace or remove any tab part or add personal notes – all changes will be seen only by you.

Personal tabs can be accessed anytime from any device, even offline.
Learn more »
Give kudos to tab author, rate the tab!
1 2 3 4 5
comments
print report bad tab
guest
You may want to rate the tab now too:
select rating
Wanna post a correction for this tab? Suggest correction