Oops, an error
Loading. Please wait.
We have an official Kristy Are You Doing Okay tab made by UG professional guitarists. Check out the tab »
×
19,823 views 12 this week
1 commentread comment
1 2 3 4 5
x 9
add to favorites
×
Save as Personal and add changes to this tab that will be seen only by you. Learn more ›
×
You can save this tab as Personal to edit and correct it or add notes. All changes will be seen only by you. Learn more »
launch autoscroll
font size
0
reset
guitar tuner
edit
Autoscroll
slow
fast
+/-
esc
set tempo
stop
Author
++++++++++++++++++++++++++++++++++++++++++++
| The Offspring- Kristy, Are You Doing Ok? |
++++++++++++++++++++++++++++++++++++++++++++


"A rose that wont bloom, winter's kept you..."

Tuning: EADG


Pre-Chorus
"But for you this never ends..."
1.
G|-----------------------|
D|-----------------------|
A|-----------------------|
E|--------3333-3~--------|

Chorus
"Can you stay strong? Can you go on?"
2.
G|--------------------------------------|
D|-------------------00000000-320--5320-|
A|-33333333-00000000-------------3------|
E|--------------------------------------|

"A rose that wont bloom, winter's kept you..."
3.
G|--------------------------------------|
D|-------------------00000000-320--20-0-|
A|-33333333-00000000-------------3---3--|
E|--------------------------------------|

Outro
4.
G|-----------|
D|-----------|
A|-3~--------|
E|-----------|

Verse
"Though the marks on your dress..."
5.
G|-5555-4444-2222-0000-----------0000-0000-|
D|---------------------3333-3333-----------|
A|-----------------------------------------|--x2
E|-----------------------------------------|

Pre-Chorus
"Oh, clouds of time..."
6.
G|------------------------------------------------------------------|
D|------------------------------------------------------------------|
A|---------------------3333-2222-0000-------------------------------|
E|-1111-1111-3333-3333----------------3333-1111-1111-3333-3~--------|

Chorus
"Can you stay strong? Can you go on?"
7.
G|--------------------------------------|
D|-------------------00000000-320--5320-|
A|-33333333-00000000-------------3------|
E|--------------------------------------|

"A rose that wont bloom, winter's kept you..."
8.
G|--------------------------------------|
D|-------------------00000000-320--20-0-|
A|-33333333-00000000-------------3---3--|
E|--------------------------------------|

Outro
9.
G|----------------------------------------------------------|
D|----------------------------------------------------------|
A|----------------------------------------------------------|
E|----------------------------------------------------------|

Bridge
10.
G|-----------------------------------------|
D|-----------------------------------------|
A|-3333-2222-0000--------------------------|--x2
E|----------------3333-1111-1111-3333-3333-|

Pre-Chorus
"Oh, clouds of time..."
11.
G|-------------------------------------------------------------|
D|-------------------------------------------------------------|
A|---------------------3333-2222-0000--------------------------|
E|------------------------------------3333-1111-1111-1111-1111-|

"It never goes away..."
12.
G|--------------------------|
D|--------------------------|
A|--------------------------|
E|-3333-3333-3333-3~--------|

Chorus
"Can you stay strong? Can you go on?"
13.
G|--------------------------------------|
D|-------------------00000000-320--5320-|
A|-33333333-00000000-------------3------|
E|--------------------------------------|

"A rose that wont bloom, winter's kept you..."
14.
G|--------------------------------------|
D|-------------------00000000-320--20-0-|
A|-33333333-00000000-------------3---3--|
E|--------------------------------------|

15.
G|----------------------------------------|
D|---------------------00000000-----------|
A|-3333-2222-0000-------------------------|
E|----------------3333----------1111-3333-|

Outro
16.
G|-----------|
D|-----------|
A|-3~--------|
E|-----------|



Lyrics:


Here’s a moment in time
And it’s stuck in my mind
Way back, when we were just kids

Cause your eyes told the tale
Of an act of betrayal
I knew that somebody did

Oh, waves of time
Seem to wash away
The scenes of our crimes
But for you this never ends

Can you stay strong?
Can you go on?
Kristy are you doing okay?
A rose that won’t bloom
Winter’s kept you
Don’t waste your whole life trying
To get back what was taken away

Though the marks on your dress
Had been neatly repressed
I knew that something was wrong
And I should have spoke out
And I’m so sorry now
I didn’t know
Cause we were so young

Oh, clouds of time
Seem to rain on
Innocence left behind
And it never goes away




+++++++++++++++++++++++++++++++++
| RaiLeff                       |
| Underground__Dora@Hotmail.Com |
+++++++++++++++++++++++++++++++++

            
            
Suggest correction
Creating personal tab
Creating personal tab
You can edit any tab online and save it as your Personal.

You can edit, replace or remove any tab part or add personal notes – all changes will be seen only by you.

Personal tabs can be accessed anytime from any device, even offline.
Learn more »
comments
print report bad tab
1 comment total.
+1 reply
GnLs 31 Jul 02, 2009 06:21 AM

Thats a nice tab man.
I havent got a bass guitar, so i played it with electro and with e it sounds great, i think with bass its godlike :D
Nice one mate

guest
You may want to rate the tab now too:
select rating
Wanna post a correction for this tab? Suggest correction