Oops, an error
Loading. Please wait.
We have an official Kristy Are You Doing Okay tab made by UG professional guitarists. Check out the tab »
×
7,362 views 1 this week
4 commentsread comments
1 2 3 4 5
x 5
add to favorites
×
Save as Personal and add changes to this tab that will be seen only by you. Learn more ›
×
You can save this tab as Personal to edit and correct it or add notes. All changes will be seen only by you. Learn more »
launch autoscroll
font size
0
reset
how to read this tab
guitar tuner
edit
Autoscroll
slow
fast
+/-
esc
set tempo
stop
Author
Difficulty
-------------------------------------------------------------------------------
                             Kristy, are you doing ok? - The Offspring
-------------------------------------------------------------------------------
Tabbed by:GnLs
Email:A.Rodler@web.de

Tuning: standard

This is how I play this song. I dont know if you like it, plz rate and comment.

The Intro I couldn´t make, sorry, i hate intro´s. xD



Verse 1 and 2 are played in the same way:

Verse 1:    There´s a moment in time, and it stuck in my mind,
Verse 2:    Thoug the marks on youre dress, have been neatly repressed, 
e|---------------------------------------------------------------------------|
B|---------------------------------------------------------------------------|
G|-----5----5----5----5----5----5----5---------------------------------------|
D|-----5----5----5----5----5----5----5----7----7----7----5-------------------|
A|-----3----3----3----3----3----3----3----7----7----7----5-------------------|
E|----------------------------------------5----5----5----3-------------------|
1       way back, when we were just kids.
2       I knew,    that something was wrong.
e|---------------------------------------------------------------------------|
B|---------------------------------------------------------------------------|
G|-----5--5--5---10---10----10--10--12---12---12-----------------------------|
D|-----5--5--5---10---10----10--10--12---12---12-----------------------------|
A|-----3--3--3----8----8-----8---8--10---10---10-----------------------------|
E|---------------------------------------------------------------------------|
1       cause youre eyes told the tale, of an act of betrayal,
2       and i should´a spoke out, and im so sorry now,
e|---------------------------------------------------------------------------|
B|---------------------------------------------------------------------------|
G|-----5----5----5----5----5----5----5---------------------------------------|
D|-----5----5----5----5----5----5----5----7----7----7----5-------------------|
A|-----3----3----3----3----3----3----3----7----7----7----5-------------------|
E|----------------------------------------5----5----5----3-------------------|
1      i knew, that somebody did.
2      i didn´t know, cause we were so young.
e|---------------------------------------------------------------------------|
B|---------------------------------------------------------------------------|
G|-----5--5--5---10---10----10--10--12---12---12-----------------------------|
D|-----5--5--5---10---10----10--10--12---12---12-----------------------------|
A|-----3--3--3----8----8-----8---8--10---10---10-----------------------------|
E|---------------------------------------------------------------------------|
1       Oh, waves of time, Seem to wash away the sence of our crimes,
2       Oh, clouds of time, seem to rain on innocence left behind,     
e|---------------------------------------------------------------------------|
B|---------------------------------------------------------------------------|
G|------5---5---5---12--12---5---5---5---5---5----10-----10-----12-----------|
D|------5---5---5---12--12---5---5---5---5---5----10-----10-----12-----------|
A|------3---3---3---10--10---3---3---5---3---3-----8------8-----10-----------|
E|---------------------------------------------------------------------------|
1       for you this never ends.
2       and never goes away.
e|---------------------------------------------------------------------------|
B|---------------------------------------------------------------------------|
G|------5---5---5---5---5---12-----------------------------------------------|
D|------5---5---5---5---5---12-----------------------------------------------|
A|------3---3---3---3---3---10-----------------------------------------------|
E|---------------------------------------------------------------------------|

1 and 2:   Can you stay strong, can you go on, 
e|---------------------------------------------------------------------------|
B|---------------------------------------------------------------------------|
G|----------5---5---5----5---5----5------------------------------------------|
D|----------5---5---5----5---5----5---7---7---7---7--------------------------|
A|----------3---3---3----3---3----3---7---7---7---7--------------------------|
E|------------------------------------5---5---5---5--------------------------|

            Kristy, are you doing oookaay
e|---------------------------------------------------------------------------|
B|---------------------------------------------------------------------------|
G|----------7---7---7---7---7---7--10---12-----------------------------------|
D|----------7---7---7---7---7---7--10---12-----------------------------------|
A|----------5---5---5---5---5---5---8---10-----------------------------------|
E|---------------------------------------------------------------------------|


1 and 2:   A rose that wont bloon, winter kept you
e|---------------------------------------------------------------------------|
B|---------------------------------------------------------------------------|
G|----------5---5---5----5---5----5------------------------------------------|
D|----------5---5---5----5---5----5---7---7---7---7--------------------------|
A|----------3---3---3----3---3----3---7---7---7---7--------------------------|
E|------------------------------------5---5---5---5--------------------------|

       Dont waste your whole life trying, to get back what was taken away.
e|----------------------------------------------------------------------------|
B|----------------------------------------------------------------------------|
G|-----7---7---7---7---7---7--7---7---7---7---10---10---10---10---12--12--12-5|
D|-----7---7---7---7---7---7--7---7---7---7---10---10---10---10---12--12--12-5|
A|-----5---5---5---5---5---5--5---5---5---5----8----8----8----8---10--10--10-3|
E|----------------------------------------------------------------------------|


|-------------------------------------------------|
|-13----13----12----12----13----13----12----12----|
|----12----12----12----12----14----14----12----12-|
|-------------------------------------------------|
|-------------------------------------------------|
|-------------------------------------------------|

----------------------|
----------------------|
-10~~~-9--7--9--7-7~~-|
----------------------|
----------------------|
----------------------|

-------------------------------------------------|
-13----13----12----12----13----13----12----12----|
----12----12----12----12----14----14----12----12-|
-------------------------------------------------|
-------------------------------------------------|
-------------------------------------------------|

-13-13-13-13-12-12-10-10-12--15-15~~~~~-|
----------------------------------------|
----------------------------------------|
----------------------------------------|
----------------------------------------|
----------------------------------------|

Then Play the Chorus again and then:

Don't waste your whole life trying, To get back what was taken away

e|----------------------------------------------------------------------------|
B|----------------------------------------------------------------------------|
G|-----7---7---7---7---7---7--7---7---7---7---10---10---10---10---12--12--12-5|
D|-----7---7---7---7---7---7--7---7---7---7---10---10---10---10---12--12--12-5|
A|-----5---5---5---5---5---5--5---5---5---5----8----8----8----8---10--10--10-3|
E|----------------------------------------------------------------------------|


Thats it.

ThX for looking at.

Greetz Andy



            
            
Suggest correction
Creating personal tab
Creating personal tab
You can edit any tab online and save it as your Personal.

You can edit, replace or remove any tab part or add personal notes – all changes will be seen only by you.

Personal tabs can be accessed anytime from any device, even offline.
Learn more »
comments
print report bad tab
4 comments total. Showing first comments.
-1 reply
offspring_punk 316 Jul 03, 2009 11:18 AM

you left out the intro...the verse is wrong...why the hell was this tab even accepted?

+1 reply
GnLs 31 Jul 04, 2009 12:31 AM

maybe you play it wrong, if you dont play it right, its normal that it sounds awful, but its correct.

+1 reply
GnLs 31 Jul 04, 2009 02:57 AM

It was accepted, because its right.

guest
You may want to rate the tab now too:
select rating
Wanna post a correction for this tab? Suggest correction