Oops, an error
Loading. Please wait.

Lets Hear It For The Rock Bottom bass

2,198 views 1 this week
1 commentread comment
1 2 3 4 5
1 last vote to show rating
add to favorites
×
Save as Personal and add changes to this tab that will be seen only by you. Learn more ›
×
You can save this tab as Personal to edit and correct it or add notes. All changes will be seen only by you. Learn more »
launch autoscroll
font size
0
reset
guitar tuner
edit
Autoscroll
slow
fast
+/-
esc
set tempo
stop
Author
++++++++++++++++++++++++++++++++++++++++++++++++++++
| The Offspring- Let's Hear It For The Rock Bottom |
++++++++++++++++++++++++++++++++++++++++++++++++++++


"We're hitting rock bottom and its going down in flames..."

Tuning: EADG


Intro
1.
G|--------------------------------|
D|--------------------------------|
A|-5~-55~-00~-----55~-55~-00~-55~-|--x2
E|------------33~-----------------|

2.
G|-------------------------------------|
D|-------------------------------------|
A|----------00000000-22222222-22222220-|
E|-33333333----------------------------|

Verse
"In my perfect isolation..."
3.
G|-------------------------------------------------------------------------|
D|-------------------------------------------------------------------------|
A|----------00000000-22222222-22222220----------00000000-22222222-22222220-|
E|-33333333----------------------------33333333----------------------------|

"Antidotes and revelations..."
4.
G|-------------------------------------------------------------------------|
D|-------------------------------------------------------------------------|
A|----------00000000-22222222-22222220----------00000000-55555555-00000x---|
E|-33333333----------------------------33333333----------------------------|

Chorus
"Wasting away, the world's right in front of me..."
5.
G|--------------------------------|
D|------------55~-----------------|
A|-5~-55~-00~-----55~-55~-00~-55~-|--x2
E|--------------------------------|

Verse
"With my lack of observation..."
6.
G|-------------------------------------------------------------------------|
D|-------------------------------------------------------------------------|
A|----------00000000-22222222-22222220----------00000000-22222222-22222220-|
E|-33333333----------------------------33333333----------------------------|

"Could you find my motivation..."
7.
G|-------------------------------------------------------------------------|
D|-------------------------------------------------------------------------|
A|----------00000000-22222222-22222220----------00000000-55555555-00000x---|
E|-33333333----------------------------33333333----------------------------|

Chorus
"Wasting away, the world's right in front of me..."
8.
G|--------------------------------|
D|------------55~-----------------|
A|-5~-55~-00~-----55~-55~-00~-55~-|--x4
E|--------------------------------|

Outro
"Wasting all my days, what would Ivan say..."
9.
G|-------------------------------------------------------------------------|
D|-------------------------------------------------------------------------|
A|-55555555-55555555-00000000-00000000-------------------00000000-00000000-|
E|-------------------------------------33333333-33333333-------------------|

Chorus
"Wasting away, we're hitting rock bottom..."
10.
G|-------------------------------------------------------------------------|
D|-------------------------------------------------------------------------|
A|-55555555-55555555-00000000-00000000-------------------------------------|
E|-------------------------------------33333333-33333333-00000000-33335555-|

Outro
11.
G|---------------------------------------------------------------------------|
D|---------------------------------------------------------------------------|
A|----------0~-------2~--------------5\---------0~-------2~----------2222-5\-|
E|-3~----------------------------------3~------------------------------------|

Bridge
12.
G|---------------------------------------------------------------2/444444---|
D|-----------------------------------------------------------------------44-|
A|----------00000000-22222222-222222-5\---------00000000-2222222------------|
E|-33333333----------------------------33333333-----------------------------|

13.
G|-------------------------------------------------------------------------|
D|-------------------------------242-0-------------------------------------|
A|----------00000000-22222222-222---------------00000000-22222222-22222222-|
E|-33333333----------------------------33333333----------------------------|

Verse
"Its hard to know..."
14.
G|-----------------------------------------------------------------------------|
D|-----------------22-----------------22-----------------22--------------------|
A|--------0-0000-44----------0-0000-44----------0-0000-44---55555555-00000x----|
E|-3333333------------3333333------------3333333-------------------------------|

Chorus
"Wasting away, the world's right in front of me..."
15.
G|--------------------------------|
D|------------55~-----------------|
A|-5~-55~-00~-----55~-55~-00~-55~-|--x4
E|--------------------------------|

"Wasting away..."
16.
G|------------------------------------------------------------------------|
D|------------------------------------------------------------------------|
A|-55555555-0000-----55555555-000-55~--55555555-0000-----55555555-000-55~-|
E|--------------3333--------------------------------3333------------------|

17.
G|-77777777-9999-11-9-7~------------------|
D|----------------------------------------|
A|-----------------------55555555-000-55~-|
E|----------------------------------------|


Lyrics:


In my perfect isolation
I can stay here for awhile
Antidotes and revelations
Just extend my own exile

Wasting away
The world’s right in front of me
Funny you should say
That it’s all in my head
Wasting away
We’re hitting rock bottom
And going down in flames
Well it’s not that bad

With my lack of observation
I can stay in here for days
Could you find my motivation
I can’t see it through this haze

Wasting away
The world’s right in front of me
Funny you should say
That it’s all in my head
Wasting away
We’re hitting rock bottom
And going down in flames
Well it’s not that bad

Wishing away
The world’s right in front of me
Call me anyway
Cause it’s all in my head
Wasting away
We’re hitting rock bottom
And going down in flames
Well it’s not that bad

Wasting all my days
What would Ivan say

Wasting away
We’re hitting rock bottom
Call me anyway
Cause I got two friends
Wasting away
We’re going down together
And all in all it’s not so bad
All in all it’s not so bad

It’s hard to know
Where to start and where to go
I will never say these words again



+++++++++++++++++++++++++++++++++
| RaiLeff                       |
| Underground__Dora@Hotmail.Com |
+++++++++++++++++++++++++++++++++

            
            
Suggest correction
Creating personal tab
Creating personal tab
You can edit any tab online and save it as your Personal.

You can edit, replace or remove any tab part or add personal notes – all changes will be seen only by you.

Personal tabs can be accessed anytime from any device, even offline.
Learn more »
Give kudos to tab author, rate the tab!
1 2 3 4 5
comments
print report bad tab
1 comment total.
0 reply
AaronDrFeelgood 124 Nov 07, 2008 06:20 PM

It's not 100% but it's pretty close,

guest
You may want to rate the tab now too:
select rating
Wanna post a correction for this tab? Suggest correction