Oops, an error
Loading. Please wait.

Million Miles Away tab

version 4
version 4

Whole song

Interactive

2,280 views 3 this week
2 commentsread comments
1 2 3 4 5
x 6
add to favorites
×
Save as Personal and add changes to this tab that will be seen only by you. Learn more ›
×
You can save this tab as Personal to edit and correct it or add notes. All changes will be seen only by you. Learn more »
launch autoscroll
font size
0
reset
how to read this tab
guitar tuner
backing track
0:00
0:00
edit
Autoscroll
slow
fast
+/-
esc
set tempo
stop
Author
Artist: The Offspring
Song: Million Miles Away
Album: Conspiracy Of One
Tabbed By: Lee Taylor
E-mail: mr_tay2001@hotmail.com

Guitar 1: F# B E A C# F# (low to high), Distortion
Guitar 2: E  A D G B  E  (low to high), Distortion
#======================================#
# . (under the bar) = Palm Mute        #
# :                 = Let Ring         #
# (b)               = Bend and release #
# /                 = Slide Up         #
# \                 = Slide Down       # 
# h                 = Hammer On        #
#======================================#
I have seen many versions of this tab and seen many parts wrong according
to how Offspring play it live. The tuning mut be like this as you can see
Noodles playing the very first part of the song around about the 5th & 7th
frets, and the rest of the stuff he plays which is the same as what Dexter
is playing is always 2 frets lower, but sounds the same.


Intro:

 Guitar 1
|---------------------------------------------------------------------|
|---------------------------------------------------------------------|
|---------------------------------------------------------------------|
|---------------------------------------------------------------------|
|-----7-----5-----10-----5-----5h7------------------------------------|
|-0-0---0-0---0-0----0-0---0-0----------------------------------------|
| . . . . . . . .  . . . . . . . .                                    |
|                                                                     |   x2
|Guitar 2                                                             |    
|---------------------------------------------------------------------|
|---------------------------------------------------------------------|
|---------------------------------------------9--9-9-9----------------|
|----------------------------------7--7-7-7-/-9--9-9-9----------------|
|----------------------------------7--7-7-7-/-7--7-7-7----------------|
|----------------------------------5--5-5-5-/-------------------------|

 Guitar 1
|---------------------------------------------------------------------|
|---------------------------------------------------------------------|
|---------------------------------------------------------------------|
|---------------------------------------------------------------------|
|-----7-----5-----10-----5-----5h7------7-----5-----10-----5-----5h7--|
|-0-0---0-0---0-0----0-0---0-0------0-0---0-0---0-0----0-0---0-0------|
| . . . . . . . .  . . . . . . . .  . . . . . . . .  . . . . . . . .  |
|                                                                     |
|Guitar 2                                                             |
|---------------------------------------------------------------------|
|---------------------------------------------------------------------|
|---------------------------------------------------------------------|
|-4:---------------------4--4--4-/-7:--------------------7--7--7-/----|
|-4:---------------------4--4--4-/-7:--------------------7--7--7-/----|
|-2:---------------------2--2--2-/-5:--------------------5--5--5-/----|

 Guitar 1
|---------------------------------------------------------------------|
|---------------------------------------------------------------------|
|---------------------------------------------------------------------|
|---------------------------------------------------------------------|
|-----7-----5-----10-----5-----5h7------7-----5-----10-----5-----5h7--|
|-0-0---0-0---0-0----0-0---0-0------0-0---0-0---0-0----0-0---0-0------|
| . . . . . . . .  . . . . . . . .  . . . . . . . .  . . . . . . . .  |
|                                                                     |
|Guitar 2                                                             |
|---------------------------------------------------------------------|
|---------------------------------------------------------------------|
|----------------------------------7---7---7---7-/-9---9---9---9------|
|-9:---------------------9--9--9---7---7---7---7-/-9---9---9---9------|
|-9:---------------------9--9--9---5---5---5---5-/-7---7---7---7------|
|-7:---------------------7--7--7--------------------------------------|


Intro Part 2:
 
 Guitar 1
|---------------------------------------------------------------------|
|---------------------------------------------------------------------|
|---------------------------------------------------------------------|
|---------------------------------------------------------------------|
|-----7-----5-----10-----5-----5h7------7-----5-----10-----5-----5h7--|
|-0-0---0-0---0-0----0-0---0-0------0-0---0-0---0-0----0-0---0-0------|
| . . . . . . . .  . . . . . . . .  . . . . . . . .  . . . . . . . .  |
|                                                                     |  x2
|Guitar 2                                                             |
|---------------------------------------------------------------------|
|---------------------------------------------------------------------|
|-11--11--11--11--11--11--11--11------------------9---9---9---9-------|
|-11--11--11--11--11--11--11--11--7---7---7---7---9---9---9---9-------|
|--9---9---9---9---9---9---9---9--7---7---7---7---7---7---7---7-------|
|---------------------------------5---5---5---5-----------------------|


Verse: 

Guitar 1
|---------------------------------------------------------------------|
|---------------------------------------------------------------------|
|-------------------------------------------------7-7-7-7-7-7-7-7-----|
|-2-2-2-2-2-2-2-2-2-2-2-2-2-2-2-2/5-5-5-5-5-5-5-5/7-7-7-7-7-7-7-7-----|
|-2-2-2-2-2-2-2-2-2-2-2-2-2-2-2-2/5-5-5-5-5-5-5-5/5-5-5-5-5-5-5-5-----|
|-0-0-0-0-0-0-0-0-0-0-0-0-0-0-0-0/3-3-3-3-3-3-3-3/--------------------|
|   . . . . . . . . . . . . . . .   . . . . . . .   . . . . . . .     |
|                                                                     |  x4
|Guitar 2                                                             |
|---------------------------------------------------------------------|
|---------------------------------------------------------------------|
|-------------------------------------------------9-9-9-9-9-9-9-9-----|
|-4-4-4-4-4-4-4-4-4-4-4-4-4-4-4-4/7-7-7-7-7-7-7-7/9-9-9-9-9-9-9-9-----|
|-4-4-4-4-4-4-4-4-4-4-4-4-4-4-4-4/7-7-7-7-7-7-7-7/7-7-7-7-7-7-7-7-----|
|-2-2-2-2-2-2-2-2-2-2-2-2-2-2-2-2/5-5-5-5-5-5-5-5/--------------------|
    . . . . . . . . . . . . . . .   . . . . . . .   . . . . . . .     
  There was a time,


Pre-Chorus:

 Guitar 1
|---------------------------------------------------------------------|
|---------------------------------------------------------------------|
|-2-2-/-4-4-/-5-5-\-4-4-4--7-7-7-7-7-7-7-7-7-7-7-7-7-7-7-7------------|
|-x-x-/-x-x-/-x-x-\-x-x-x--7-7-7-7-7-7-7-7-7-7-7-7-7-7-7-7------------|
|-0-0-/-2-2-/-3-3-\-2-2-2--5-5-5-5-5-5-5-5-5-5-5-5-5-5-5-5------------|
|---------------------------------------------------------------------|
|                                                                     |
|                                                                     |
|Guitar 2                                                             |
|---------------------------------------------------------------------|
|---------------------------------------------------------------------|
|-4-4-/-6-6-/-7-7-\-6-6-6--9-9-9-9-9-9-9-9-9-9-9-9-9-9-9-9------------|
|-x-x-/-x-x-/-x-x-\-x-x-x--9-9-9-9-9-9-9-9-9-9-9-9-9-9-9-9------------|
|-2-2-/-4-4-/-5-5-\-4-4-4--7-7-7-7-7-7-7-7-7-7-7-7-7-7-7-7------------|
|---------------------------------------------------------------------|
                          Its telling me

 Guitar 1
|------------------------------------------------------------------------------------------|
|------------------------------------------------------------------------------------------|
|-2-2-/-4-4-/-5-5-\-4-4-4--7-7-7-7-7-7-7-7-7-7-7-7-7-7-7-7-7-7-7-7-7-7-7-7-7-7-7-7-7-7-7-7-|
|-x-x-/-x-x-/-x-x-\-x-x-x--7-7-7-7-7-7-7-7-7-7-7-7-7-7-7-7-7-7-7-7-7-7-7-7-7-7-7-7-7-7-7-7-|
|-0-0-/-2-2-/-3-3-\-2-2-2--5-5-5-5-5-5-5-5-5-5-5-5-5-5-5-5-5-5-5-5-5-5-5-5-5-5-5-5-5-5-5-5-|
|------------------------------------------------------------------------------------------|
|                            . . . . . . . . . . . . . . . . . . . . . . . . . . . . . . . |
|                                                                                          |
|Guitar 2                                                                                  |
|------------------------------------------------------------------------------------------|
|------------------------------------------------------------------------------------------|
|-4-4-/-6-6-/-7-7-\-6-6-6--9-9-9-9-9-9-9-9-9-9-9-9-9-9-9-9-9-9-9-9-9-9-9-9-9-9-9-9-9-9-9-9-|
|-x-x-/-x-x-/-x-x-\-x-x-x--9-9-9-9-9-9-9-9-9-9-9-9-9-9-9-9-9-9-9-9-9-9-9-9-9-9-9-9-9-9-9-9-|
|-2-2-/-4-4-/-5-5-\-4-4-4--7-7-7-7-7-7-7-7-7-7-7-7-7-7-7-7-7-7-7-7-7-7-7-7-7-7-7-7-7-7-7-7-|
|------------------------------------------------------------------------------------------|
                             . . . . . . . . . . . . . . . . . . . . . . . . . . . . . . .  
  To be on my way,         Home,


Chorus:

 Guitar 1
|----------------------------------------------------------------------------------|
|----------------------------------------------------------------------------------|
|--9--9--9--9--9--9--9--9--9--9--9--9--9--9--9--9-----------------7-7-7-7-7-7-7-7--|
|--9--9--9--9--9--9--9--9--9--9--9--9--9--9--9--9-5-5-5-5-5-5-5-5-7-7-7-7-7-7-7-7--|
|--7--7--7--7--7--7--7--7--7--7--7--7--7--7--7--7-5-5-5-5-5-5-5-5-5-5-5-5-5-5-5-5--|
|-------------------------------------------------3-3-3-3-3-3-3-3------------------|
|                                                                                  |
|                                                                                  | x2
|Guitar 2                                                                          |
|----------------------------------------------------------------------------------|
|----------------------------------------------------------------------------------|
|-11-11-11-11-11-11-11-11-11-11-11-11-11-11-11-11-----------------9-9-9-9-9-9-9-9--|
|-11-11-11-11-11-11-11-11-11-11-11-11-11-11-11-11-7-7-7-7-7-7-7-7-9-9-9-9-9-9-9-9--|
|--9--9--9--9--9--9--9--9--9--9--9--9--9--9--9--9-7-7-7-7-7-7-7-7-7-7-7-7-7-7-7-7--|
|-------------------------------------------------5-5-5-5-5-5-5-5------------------|
  Oh oh oh oh,                                    Million miles away,


Chorus Part 2:
 
 Guitar 1
|---------------------------------------------------------------------|
|---------------------------------------------------------------------|
|---------------------------------------------------------------------|
|---------------------------------------------------------------------|
|-----7-----5-----10-----5-----5h7------7-----5-----10-----5-----5h7--|
|-0-0---0-0---0-0----0-0---0-0------0-0---0-0---0-0----0-0---0-0------|
| . . . . . . . .  . . . . . . . .  . . . . . . . .  . . . . . . . .  |
|                                                                     |
|Guitar 2                                                             |
|---------------------------------------------------------------------|
|---------------------------------------------------------------------|
|---------------------------------------------------------------------|
|-4-4-4-4-4-4-4-4-4-4-4-4-4-4-4-4--7-7-7-7-7-7-7-7-7-7-7-7-7-7-7-7----|
|-4-4-4-4-4-4-4-4-4-4-4-4-4-4-4-4--7-7-7-7-7-7-7-7-7-7-7-7-7-7-7-7----|
|-2-2-2-2-2-2-2-2-2-2-2-2-2-2-2-2--5-5-5-5-5-5-5-5-5-5-5-5-5-5-5-5----|
    . . . . . . . . . . . . . . .    . . . . . . . . . . . . . . . 

 Guitar 1
|---------------------------------------------------------------------|
|---------------------------------------------------------------------|
|---------------------------------------------------------------------|
|---------------------------------------------------------------------|
|-----7-----5-----10-----5-----5h7------7-----5-----10-----5-----5h7--|
|-0-0---0-0---0-0----0-0---0-0------0-0---0-0---0-0----0-0---0-0------|
| . . . . . . . .  . . . . . . . .  . . . . . . . .  . . . . . . . .  |
|                                                                     |
|Guitar 2                                                             |
|---------------------------------------------------------------------|
|---------------------------------------------------------------------|
|----------------------------------7-7-7-7-7-7-7-7-9-9-9-9-9-9-9-9----|
|-9-9-9-9-9-9-9-9-9-9-9-9-9-9-9-9--7-7-7-7-7-7-7-7-9-9-9-9-9-9-9-9----|
|-9-9-9-9-9-9-9-9-9-9-9-9-9-9-9-9--5-5-5-5-5-5-5-5-7-7-7-7-7-7-7-7----|
|-7-7-7-7-7-7-7-7-7-7-7-7-7-7-7-7-------------------------------------|
    . . . . . . . . . . . . . . .


Then Play:

 Intro Part 2     x2
        Verse     x4
   Pre-Chorus     x1
       Chorus     x2
Chorus Part 2     x1


Solo:

 Guitar 1
|---------------------------------------------------------------------|
|---------------------------------------------------------------------|
|-14(b)----14---12----9----------14(b)---14--14--12--14--14-----------|
|---------------------------------------------------------------------|
|---------------------------------------------------------------------|
|---------------------------------------------------------------------|
|                                                                     |
|                                                                     |  x2
|Guitar 2                                                             |
|---------------------------------------------------------------------|
|---------------------------------------------------------------------|
|-11--11--11--11--11--11--11--11------------------9---9---9---9-------|
|-11--11--11--11--11--11--11--11--7---7---7---7---9---9---9---9-------|
|--9---9---9---9---9---9---9---9--7---7---7---7---7---7---7---7-------|
|---------------------------------5---5---5---5-----------------------|

 Guitar 1
|---------------------------------------------------------------------|
|---------------------------------------------------------------------|
|-12--12---9---9---9--7---9--12----12-12-12--9--9--9--9--9--9-7--9-12-|
|---------------------------------------------------------------------|
|---------------------------------------------------------------------|
|---------------------------------------------------------------------|
|                                                                     |
|                                                                     |
|Guitar 2                                                             |
|---------------------------------------------------------------------|
|---------------------------------------------------------------------|
|---------------------------------------------------------------------|
|-4-4-4-4-4-4-4-4-4-4-4-4-4-4-4-4-/7-7-7-7-7-7-7-7-7-7-7-7-7-7-7-7----|
|-4-4-4-4-4-4-4-4-4-4-4-4-4-4-4-4-/7-7-7-7-7-7-7-7-7-7-7-7-7-7-7-7----|
|-2-2-2-2-2-2-2-2-2-2-2-2-2-2-2-2-/5-5-5-5-5-5-5-5-5-5-5-5-5-5-5-5----|

 Guitar 1
|------------------------------------------------------------------------|
|------------------------------------------------------------------------|
|-12-12-12--9--9--9--9--9--9-7--9-12--12(b)---14(b)---11(b)---7(b)----9--|
|------------------------------------------------------------------------|
|------------------------------------------------------------------------|
|------------------------------------------------------------------------|
|                                                                        |
|                                                                        |
|Guitar 2                                                                |
|------------------------------------------------------------------------|
|------------------------------------------------------------------------|
|-------------------------------------7-7-7-7-7-7-7-7/9-9-9-9-9-9-9-9----|
|-9-9-9-9-9-9-9-9-9-9-9-9-9-9-9-9--/--7-7-7-7-7-7-7-7/9-9-9-9-9-9-9-9----|
|-9-9-9-9-9-9-9-9-9-9-9-9-9-9-9-9--/--5-5-5-5-5-5-5-5/7-7-7-7-7-7-7-7----|
|-7-7-7-7-7-7-7-7-7-7-7-7-7-7-7-7--/-------------------------------------|


Then Play:

Pre-Chorus   x1
    Chorus   x4
                        

End Chorus:

 Guitar 1
|----------------------------------------------------------------------------------|
|----------------------------------------------------------------------------------|
|----------------------------------------------------------------------------------|
|----------------------------------------------------------------------------------|
|-----7-----5-----10-----5-----5h7--------------7-----5-----10-----5-----5h7-------|
|-0-0---0-0---0-0----0-0---0-0--------------0-0---0-0---0-0----0-0---0-0-----------|
| . . . . . . . .  . . . . . . . .          . . . . . . . .  . . . . . . . .       |
|                                                                                  | x4
|Guitar 2                                                                          |
|----------------------------------------------------------------------------------|
|----------------------------------------------------------------------------------|
|-11-11-11-11-11-11-11-11-11-11-11-11-11-11-11-11-----------------9-9-9-9-9-9-9-9--|
|-11-11-11-11-11-11-11-11-11-11-11-11-11-11-11-11-7-7-7-7-7-7-7-7-9-9-9-9-9-9-9-9--|
|--9--9--9--9--9--9--9--9--9--9--9--9--9--9--9--9-7-7-7-7-7-7-7-7-7-7-7-7-7-7-7-7--|
|-------------------------------------------------5-5-5-5-5-5-5-5------------------|

End on:

 Guitar 1
|-------------------|
|-------------------|
|-------------------|
|-2:----------------|
|-2:----------------|
|-0:----------------|
|                   |
|                   |
|Guitar 2           |
|-------------------|
|-------------------|
|-------------------|
|-4:----------------|
|-4:----------------|
|-2:----------------|

            
            
Suggest correction
Creating personal tab
Creating personal tab
You can edit any tab online and save it as your Personal.

You can edit, replace or remove any tab part or add personal notes – all changes will be seen only by you.

Personal tabs can be accessed anytime from any device, even offline.
Learn more »
comments
print report bad tab
2 comments total.
0 reply
jc_2k 30 Sep 03, 2002 08:00 PM

its awful! not mean to offen, it sounds kinda good but intro and solo and most thiings are wrong!
The second part of solo is
e-------------------------------
B-------------------------------
G-14-14-14/11-11-11-9-9-9-11-14-
D-------------------------------
A-------------------------------
E-------------------------------

0 reply
METSOAD 1,632 Jun 22, 2006 11:09 PM

why would you tune a guitar to f#?

guest
You may want to rate the tab now too:
select rating
Wanna post a correction for this tab? Suggest correction