Oops, an error
Loading. Please wait.

Pay The Man bass

version 1
version 1

Whole song

Interactive

1,737 views 3 this week
1 commentread comment
1 2 3 4 5
2 more votes to show rating
add to favorites
×
Save as Personal and add changes to this tab that will be seen only by you. Learn more ›
×
You can save this tab as Personal to edit and correct it or add notes. All changes will be seen only by you. Learn more »
launch autoscroll
font size
0
reset
guitar tuner
edit
Autoscroll
slow
fast
+/-
esc
set tempo
stop
Author
++++++++++++++++++++++++++++++
| The Offspring- Pay The Man |
++++++++++++++++++++++++++++++

Tuning: EADG


Intro  0:43
1.
G|-------------------------------------------|
D|-------------------------------------------|
A|-7~-7~-77--7~-7~-778-8p7~-7~-77-5h7~-7~-77-|--x12
E|-------------------------------------------|

2.
G|---------------------------------------------------------|
D|---------------------------------------------------------|
A|-0~-0-0/8~-8-8---------------0~-0-0/8~-8-8---------------|
E|---------------0~-0~-00~-0-0---------------0~-0~-00~-0-0-|

3.
G|-------------------------------------------|
D|-------------------------------------------|
A|-0~-0-0/8~-8-8---------------0~-0-0/8~-8-8-|
E|---------------0~-0~-00~-0-0---------------|

4.
G|-------------------------------------------|
D|-------------------------------------------|
A|-7~-7~-77--7~-7~-778-8p7~-7~-77-5h7~-7~-77-|--x4
E|-------------------------------------------|

Verse
"See the way the wind blows..."
5.
G|-------------------------------------------|
D|-------------------------------------------|
A|-7~-7~-77--7~-7~-778-8p7~-7~-77-5h7~-7~-77-|--x4
E|-------------------------------------------|

Chorus
"In our souls..."
6.
G|------------------------------------------------------------|
D|------------------------------------------------------------|
A|-5~-5-5~-8~-8-8---------------5~-5-5~-8~-8-8~---------------|
E|----------------0~-0~-00~-0-0-----------------0~-0~-00~-0-0-|

7.
G|----------------------------------------------|
D|----------------------------------------------|
A|-5~-5-5~-8~-8-8---------------5~-5-5~-8~-8-8~-|
E|----------------0~-0~-00~-0-0-----------------|

Verse
"See the way the sun sets..."
8.
G|-------------------------------------------|
D|-------------------------------------------|
A|-7~-7~-77--7~-7~-778-8p7~-7~-77-5h7~-7~-77-|--x4
E|-------------------------------------------|

Chorus
"In our souls..."
9.
G|------------------------------------------------------------|
D|------------------------------------------------------------|
A|-5~-5-5~-8~-8-8---------------5~-5-5~-8~-8-8~---------------|
E|----------------0~-0~-00~-0-0-----------------0~-0~-00~-0-0-|

10.
G|----------------------------------------------|
D|----------------------------------------------|
A|-5~-5-5~-8~-8-8---------------5~-5-5~-8~-8-8~-|
E|----------------0~-0~-00~-0-0-----------------|

Here's where the rock part starts...

4:53

Intro
11.
G|---------------------|
D|---------------------|
A|---------------------|
E|-0~--------0~--------|

12.
G|---------------------------------------------|
D|-----------------------------------------7-6-|
A|-5h7---7-77-5h7-7-3-3h5-5h7---7-77-5h7-7-----|--x2
E|-----0---0------------------0---0------------|

Verse
"Come down to sorry and sable..."
13.
G|---------------------------------------------|
D|-----------------------------------------7-6-|
A|-5h7-7-7-77-5h7-7-3-3h5-5h7-7-7-77-5h7-7-----|--x4
E|---------------------------------------------|

Chorus
"Oh, shut up, you talk too much..."
14.
G|---------------------------------------|
D|---------------------------------------|
A|-5~-555-55-3~-333-33------7~-----5~-0~-|--x4
E|---------------------0-0~----0-0-------|

Outro
"No!"
15.
G|---------------------------------------------|
D|-----------------------------------------7-6-|
A|-5h7---7-77-5h7-7-3-3h5-5h7---7-77-5h7-7-----|--x2
E|-----0---0------------------0---0------------|

Verse
"Look at you and your struggle to freedom..."
16.
G|---------------------------------------------|
D|-----------------------------------------7-6-|
A|-5h7-7-7-77-5h7-7-3-3h5-5h7-7-7-77-5h7-7-----|--x4
E|---------------------------------------------|

Pre-Chorus
"This is life! This is life!..."
17.
G|-------------------------------------------------------------------------------------------|
D|---------------------------------------------------------------------------------------7-6-|
A|-5h7-7-7-77-5h7-7-3-3h5-5h7-7-7-77-5h7-7-3-3h5-5h7-7-7-77-5h7-7-3-3h5-5h7-7-7-77-5h7-7-----|
E|-------------------------------------------------------------------------------------------|

"Pay the man! Pay the man!..."
18.
G|-------------------------------------------------------------------------------------------|
D|---------------------------------------------------------------------------------------7-6-|
A|-5h7-7-7-77-5h7-7-3-3h5-5h7-7-7-77-5h7-7-3-3h5-5h7-7-7-77-5h7-7-3-3h5-5h7-7-7-77-5h7-7-----|
E|-------------------------------------------------------------------------------------------|

Chorus
"Oh, shut up, you talk too much..."
19.
G|---------------------------------------|
D|---------------------------------------|
A|-5~-555-55-3~-333-33------7~-----5~-0~-|--x4
E|---------------------0-0~----0-0-------|

20.
G|---------------------------------------------|
D|-----------------------------------------7-6-|
A|-5h7---7-77-5h7-7-3-3h5-5h7---7-77-5h7-7-----|
E|-----0---0------------------0---0------------|

21.
G|---------------------------------------------|
D|-----------------------------------------7-6-|
A|-5h7-7-7-77-5h7-7-3-3h5-5h7-7-7-77-5h7-7-----|--x2
E|---------------------------------------------|

22.
G|---------------------------------------------|
D|-----------------------------------------7-6-|
A|-5h7---7-77-5h7-7-3-3h5-5h7---7-77-5h7-7-----|--x2
E|-----0---0------------------0---0------------|

Chorus
"Oh, shut up, you talk too much..."
23.
G|---------------------------------------|
D|---------------------------------------|
A|-5~-555-55-3~-333-33------7~-----5~-0~-|--x2
E|---------------------0-0~----0-0-------|

Lyrics:


See the way the wind blows
Lives are intertwined
Watch the way the world goes
The man deals out our plight

Jester in the corner
Laughs without a sound
Jester in the corner
Malady abounds
In our souls

See the way the sun sets
Twilight of this life
The man is making little bets
Playing with our lives

All that I believe now
Anything is possible
A simple explanation
For the evil in this world
And in our souls
In our souls

Come down to sorry and sable
It's always the man
Always keeping you down
Bow down cause I see it before me
Shadow and light
That always keeps you running

Shut up you talk too much
Pay the man
Shut up you talk too much

Look at you and your struggle for freedom
But you ain't nothing
We all pay the man for living

Wouldn't it be nice for a change now
To be unchained
My life is for me now
But this is life
Pay the man

+++++++++++++++++++++++++++++++++
| RaiLeff                       |
| Underground__Dora@Hotmail.Com |
+++++++++++++++++++++++++++++++++

            
            
Suggest correction
Creating personal tab
Creating personal tab
You can edit any tab online and save it as your Personal.

You can edit, replace or remove any tab part or add personal notes – all changes will be seen only by you.

Personal tabs can be accessed anytime from any device, even offline.
Learn more »
Give kudos to tab author, rate the tab!
1 2 3 4 5
comments
print report bad tab
1 comment total.
0 reply
10Sam 93 Apr 02, 2011 12:54 PM

Perfect tab!!!!

guest
You may want to rate the tab now too:
select rating
Wanna post a correction for this tab? Suggest correction