Oops, an error
Loading. Please wait.
We have an official Self Esteem tab made by UG professional guitarists. Check out the tab »
×
31,389 views 3 this week
2 commentsread comments
1 2 3 4 5
x 7
add to favorites
×
Save as Personal and add changes to this tab that will be seen only by you. Learn more ›
×
You can save this tab as Personal to edit and correct it or add notes. All changes will be seen only by you. Learn more »
launch autoscroll
font size
0
reset
how to read this tab
guitar tuner
backing track
0:00
0:00
edit
Autoscroll
slow
fast
+/-
esc
set tempo
stop
Author
INTRO

e-----------------------------------------====
b-----------------------------------------====
g--------------9999-----------------------====
d---6-6---6----7777---9-9---4-4-444-------====
a---6-6---6----7777---7-7---4-4-444-------====
e---4-4---4-----------7-7---2-2-222-------====

that is pretty much all i know for the intro.....


if need help or comments email to 
skatin2005@yahoo.com

            
            
Suggest correction
Creating personal tab
Creating personal tab
You can edit any tab online and save it as your Personal.

You can edit, replace or remove any tab part or add personal notes – all changes will be seen only by you.

Personal tabs can be accessed anytime from any device, even offline.
Learn more »
comments
print report bad tab
2 comments total.
0 reply
Strat_guitarist 40 Jun 26, 2004 08:00 PM

its right, but I also like to do it this way:

e----------------------------------
B----------------------------------
G---------10-10-10--5-5-55---------
D-7-7-77--10-10-10--5-5-55-5-5-5---
A-7-7-77--8--8--8---3-3-33-5-5-5---
E-5-5-55-------------------3-3-3---

0 reply
A7XDUDE 10 May 19, 2006 06:39 PM

rocked out

guest
You may want to rate the tab now too:
select rating
Wanna post a correction for this tab? Suggest correction