Oops, an error
Loading. Please wait.
We have an official The Kids Arent Alright tab made by UG professional guitarists. Check out the tab »
×
57,391 views 39 this week
6 commentsread comments
1 2 3 4 5
x 23
add to favorites
×
Save as Personal and add changes to this tab that will be seen only by you. Learn more ›
×
You can save this tab as Personal to edit and correct it or add notes. All changes will be seen only by you. Learn more »
launch autoscroll
font size
0
reset
how to read this tab
guitar tuner
backing track
0:00
0:00
edit
Autoscroll
slow
fast
+/-
esc
set tempo
stop
Author
The Kids Aren’t Alright - The Offspring
By: xtreme_ryguy

If you get messed up while reading the bends look at the
page “How to Write a Tab” and look at 2.3- Bends. This is
only the solo for the song… it seems it was the only part
no one could tab right. Look at one of the other versions
for the rest of the song.

 [Solo]
e|---------------------------------------------------|
B|----------------------------9----11----14----16----|
G|---------------------------11b13-13b15-16b18-18b20-|
D|---------------------------------------------------|
A|-1-1/3-3-3/4-4-4/6-6-6/8-8-------------------------|
E|---------------------------------------------------|

e|-13---16p13---------13----13_13-13----13-13-13----13_13-|
B|-16b18-----18r16-14-16b18-18-18-16b18-18-18-16b18-18-18-|
G|--------------------------------------------------------|
D|--------------------------------------------------------|
A|--------------------------------------------------------|
E|--------------------------------------------------------|

e|---------------------------------------9-9------------|
B|-16b18r16-14----14h16-14-11----------9-----9----------|
G|-------------15-------------11b13-11---------10-11b13-|
D|------------------------------------------------------|
A|------------------------------------------------------|
E|------------------------------------------------------|

e|----------------------------|
B|-14-16b18_18r16-14-16b18r16-|
G|----------------------------|
D|----------------------------|
A|----------------------------|
E|----------------------------|

Questions or comments? Email me at extremebiker1@hotmail.com

************************************

| b  Bend
| /  Slide up
| p  Pull-off
| r  Release
| h  Hammer-on

************************************

            
            
Suggest correction
Creating personal tab
Creating personal tab
You can edit any tab online and save it as your Personal.

You can edit, replace or remove any tab part or add personal notes – all changes will be seen only by you.

Personal tabs can be accessed anytime from any device, even offline.
Learn more »
comments
print report bad tab
6 comments total. Showing first comments.
0 reply
[NOFX]Alien[PW] 0 May 20, 2002 08:00 PM

good

0 reply
apocalypse 10 May 20, 2002 08:00 PM

two words "spot on"

0 reply
apocalypse 10 Jun 02, 2002 08:00 PM

i got a bit messed up tryin to play it, but reading it, i reckon that its spot on

guest
You may want to rate the tab now too:
select rating
Wanna post a correction for this tab? Suggest correction