Oops, an error
Loading. Please wait.
We have an official Trust In You tab made by UG professional guitarists. Check out the tab »
×
937 views 1 this week
no commentswrite comment
1 2 3 4 5
2 more votes to show rating
add to favorites
×
Save as Personal and add changes to this tab that will be seen only by you. Learn more ›
×
You can save this tab as Personal to edit and correct it or add notes. All changes will be seen only by you. Learn more »
launch autoscroll
font size
0
reset
guitar tuner
edit
Autoscroll
slow
fast
+/-
esc
set tempo
stop
Author
+++++++++++++++++++++++++++++++
| The Offspring- Trust In You |
+++++++++++++++++++++++++++++++


"Quo modo, shadow to light..."

Tuning: EADG


Verse
"I am the one your help I've refused..."
1.
G|-----------------------------------------------------------------------------------|
D|-333333----------------111111----------------333333----------------111111----------|
A|-----------------------------1133333x------------------------------------113-3-3-3-|
E|-------3344444x------------------------------------3344444x------------------------|

"Too proud to beg, too stubborn to try..."
2.
G|-------------------------------------------------------------------------|
D|-------------------111111------------------------------111111------------|
A|-------------------------11-33333333-------------------------11-33333333-|
E|-11111133-44444444-------------------11111133-44444444-------------------|

Chorus
"Trust in you, trust in you..."
3.
G|----------------------------------------------------------------------3311-|
D|-333-1333-1333-13311-------------------------------------11111111-1111-----|
A|---------------------44444444-44444466-------------------------------------|
E|---------------------------------------44444444-44444444-------------------|

"Quo modo, shadow to light..."
4.
G|---------------------------------------------------------------------------|
D|-333-1333-1333-13311-------------------------------------11111111-11111111-|
A|---------------------44444444-44444466-------------------------------------|
E|---------------------------------------44444444-44444444-------------------|

Outro
5.
G|-----------------------------------------------|
D|-----------------------------------------------|
A|------------------1~-111------4~-346-88~-68-8\-|
E|-1-1114~-444-1-111-------1-111-----------------|

6.
G|---------------------------------------------|
D|---------------------------------------------|
A|------------------1~-111------4~-346-88~-68x-|
E|-1-1114~-444-1-111-------1-111---------------|

Verse
"I am the one who blames only you..."
7.
G|-----------------------------------------------------------------------------------|
D|-333333----------------111111----------------333333----------------111111----------|
A|-----------------------------1133333x------------------------------------113-3-3-3-|
E|-------3344444x------------------------------------3344444x------------------------|

"Who tied the other end of my rope?"
8.
G|-------------------------------------------------------------------------|
D|-------------------111111------------------------------111111------------|
A|-------------------------11-33333333-------------------------11-33333333-|
E|-11111133-44444444-------------------11111133-44444444-------------------|

Chorus
"Trust in you, trust in you..."
9.
G|----------------------------------------------------------------------3311-|
D|-333-1333-1333-13311-------------------------------------11111111-1111-----|
A|---------------------44444444-44444466-------------------------------------|
E|---------------------------------------44444444-44444444-------------------|

"Quo modo, shadow to light..."
10.
G|---------------------------------------------------------------------------|
D|-333-1333-1333-13311-------------------------------------11111111-11111111-|
A|---------------------44444444-44444466-------------------------------------|
E|---------------------------------------44444444-44444444-------------------|

Outro
11.
G|-----------------------------------------------|
D|-----------------------------------------------|
A|------------------1~-111------4~-346-88~-68-8\-|--x2
E|-1-1114~-444-1-111-------1-111-----------------|

Bridge
12.
G|-------------------------------------------------------------------------|
D|--------------33----------------1133--------------33----------------1133-|
A|----------------33-44444444-4444--------------------33-44444444-4444-----|--x2
E|-11111111-1111-----------------------11111111-1111-----------------------|

13.
G|-------------------------------------------------------------------------|
D|-------------------------------------------------------------------------|
A|-------------------44444444-44444444-----------4444444----------66666666-|
E|-11111111-11111111-------------------11111111-1--------44444444----------|

Chorus
"Trust in you, trust in you..."
14.
G|----------------------------------------------------------------------3311-|
D|-333-1333-1333-13311-------------------------------------11111111-1111-----|
A|---------------------44444444-44444466-------------------------------------|
E|---------------------------------------44444444-44444444-------------------|

"Quo modo, shadow to light..."
15.
G|---------------------------------------------------------------------------|
D|-333-1333-1333-13311-------------------------------------11111111-11111111-|
A|---------------------44444444-44444466-------------------------------------|
E|---------------------------------------44444444-44444444-------------------|

Outro
16.
G|-----------------------------------------------|
D|-----------------------------------------------|
A|------------------1~-111------4~-346-88~-68-8\-|
E|-1-1114~-444-1-111-------1-111-----------------|

17.
G|---------------------------------------------|
D|---------------------------------------------|
A|------------------1~-111------4~-346-88~-68x-|
E|-1-1114~-444-1-111-------1-111---------------|


Lyrics:


I am the one, your help I’ve refused
Your offering hand just set off the fuse
I am the rock that pushes away
I gave up tomorrow to spite today

Too proud to beg, too stubborn to try
I’d look in your face and spit in your eye
But I’m willing to find what’s really inside
And show I am strong enough to

Trust in you.
Pull me up
Quo modo, shadow to light
Quo modo, pull me up
Pull me up
Cause I am ready

I am the one who blames only you
The flame in my eyes now blackens my view
I am the one who wanders alone
Darkness inside blocks how you’ve shone

Who tied the other end of my rope?
I want to move on, I want to have hope
So I’m willing to change, I’m going to try
To show I am strong enough to

Cause I am waiting



+++++++++++++++++++++++++++++++++
| RaiLeff                       |
| Underground__Dora@Hotmail.Com |
+++++++++++++++++++++++++++++++++

            
            
Suggest correction
Creating personal tab
Creating personal tab
You can edit any tab online and save it as your Personal.

You can edit, replace or remove any tab part or add personal notes – all changes will be seen only by you.

Personal tabs can be accessed anytime from any device, even offline.
Learn more »
Give kudos to tab author, rate the tab!
1 2 3 4 5
comments
print report bad tab
guest
You may want to rate the tab now too:
select rating
Wanna post a correction for this tab? Suggest correction