Oops, an error
Loading. Please wait.
We have an official Trust In You tab made by UG professional guitarists. Check out the tab »
×
15,119 views 18 this week
5 commentsread comments
1 2 3 4 5
x 3
add to favorites
×
Save as Personal and add changes to this tab that will be seen only by you. Learn more ›
×
You can save this tab as Personal to edit and correct it or add notes. All changes will be seen only by you. Learn more »
launch autoscroll
font size
0
reset
how to read this tab
guitar tuner
edit
Autoscroll
slow
fast
+/-
esc
set tempo
stop
Author
Difficulty
Offspring - Trust In You
Tuning: EADGBE (Standard E)

Definately my favourite song frmo the new album.
I have a feeling the song was actually writting Eb standard, but I don’t
think it matters too much. Here’s the way I play it. Enjoy

Make sure you check out my band at:
www.myspace.com/triameraband

Verse Riff 1
E|------------------------------|-----------------------------|
B|------------------------------|-----------------------------|
G|------------------------------|-----------------------------|
D|-10-10---10-10----------------|-8-8---8-8-------------------|
A|-8--8----8--8---3--3s6--6-6---|-6-6---6-6--8s10-10--10-10---|
E|----------------1--1s4--4-4---|------------6s8--8---8--8----|

Verse Riff 2
E|------------------------------------------------------------------|
B|------------------------------------------------------------------|
G|------------------------------------------------------------------|
D|------------------------------------------------------------------|
A|-8-8-888-8-88--------------------6-6-666-6-66---------------------|
E|-------------1-114-4-444-4-444-44------------6-668-8-888-8-888-88-|

Chorus Riff 1
E|------------------------------------|------------------------------|
B|------------------------------------|------------------------------|
G|------------------------------------|------------------------------|
D|-10-10-8-10-10-8-10-10--10-10-10--8-|-6-6--6-6-6--6-6-6--6-6-6-6-8-|
A|-8--8--6-8--8--6-8--8---8--8--8---6-|-4-4--4-4-4--4-4-4--4-4-4-4-6-|
E|------------------------------------|------------------------------|

E|------------------------------|------------------------------|
B|------------------------------|------------------------------|
G|------------------------------|------------------------------|
D|----------------------------5-|-8-8--8-8-8--8-8-8--8-8-8-8-5-|
A|-6-6--6-6-6--6-6-6--6-6-6-6-3-|-6-6--6-6-6--6-6-6--6-6-6-6-3-|
E|-4-4--4-4-4--4-4-4--4-4-4-4---|------------------------------|

Chorus Riff 2
E|-----------------------------------------------------------------|
B|-----------------------------------------------------------------|
G|-----------------------------------------------------------------|
D|------------------------3--3-3-3-------6--5s6-8-8-10--8-8-10-10--|
A|--------6--6-6-6--------1--1-1-1-------4--3s4-6-6-8---6-6-8--8---|
E|-1-1111-4--4-4-4-1-1111----------1-1111--------------------------|

Solo
E|------------------------------------------|
B|------------------------------------------|
G|------------------------------------------|
D|-----6s11s10--10-11p10-11-13-11-10--------|
A|-6s8-------------------------------13-11--|
E|------------------------------------------|

E|------------------------------------|
B|------------------------------------|
G|-13-13------13-13-12-12-13-13-15-15-|
D|-------10---------------------------|
A|------------------------------------|
E|------------------------------------|

E|------------------------------------|
B|------------------------------------|
G|-13-13------13-13-12-12-13-13-15-15-|
D|-------11---------------------------|
A|------------------------------------|
E|------------------------------------|

E|-------------------------------------------------|
B|-------------------------------------------------|
G|-13-13-------13-13-------13-13-------13-13-------|
D|-------10-10-------10-10-------11-11-------11-11-|
A|-------------------------------------------------|
E|-------------------------------------------------|

E|----------------------------------------|
B|----------------------------------------|
G|-17-17-------17-17-------15s17s15-13-12-|
B|-------13-13-------13-13----------------|
A|----------------------------------------|
E|----------------------------------------|

            
            
Suggest correction
Creating personal tab
Creating personal tab
You can edit any tab online and save it as your Personal.

You can edit, replace or remove any tab part or add personal notes – all changes will be seen only by you.

Personal tabs can be accessed anytime from any device, even offline.
Learn more »
Give kudos to tab author, rate the tab!
1 2 3 4 5
comments
print report bad tab
5 comments total. Showing first comments.
+1 reply
Carlson-online 147 Jun 10, 2008 03:35 PM

i think it is.
hammerhead is (despite what people say!)

+2 reply
andrewofhackney 157 Jun 11, 2008 03:15 AM

now how did u get ur hands on this song eh? *wink wink*

0 reply
ThunderPX 484 Jun 13, 2008 08:16 AM

You missed the high-pitched pentatonic thing in the chorus (it's kind of soft, listen closely.)

guest
You may want to rate the tab now too:
select rating
Wanna post a correction for this tab? Suggest correction