Oops, an error
Loading. Please wait.
We have an official Want You Bad tab made by UG professional guitarists. Check out the tab »
×
6,946 views 3 this week
3 commentsread comments
1 2 3 4 5
x 4
add to favorites
×
Save as Personal and add changes to this tab that will be seen only by you. Learn more ›
×
You can save this tab as Personal to edit and correct it or add notes. All changes will be seen only by you. Learn more »
launch autoscroll
font size
0
reset
how to read this tab
guitar tuner
backing track
0:00
0:00
edit
Autoscroll
slow
fast
+/-
esc
set tempo
stop
-------------------------------------------------------------------------------
                             I WANT YOU BAD - Offspring
-------------------------------------------------------------------------------

Tabbed by: Gregorius Your God
Email: gwhitwham@hotmail.com

Tuning: why, it's standard of course...

******Absolutely correct!

e|---------------------------------------------------------------------------|
B|---------------------------------------------------------------------------|
G|---------------------------------------------------------------------------|
D|-9-------------------------------------------------------------------------|
A|-7---9---7---11-7----------------------------------------------------------|
E|-----7---5----9-5----------------------------------------------------------|

                             X4

            
            
Suggest correction
Creating personal tab
Creating personal tab
You can edit any tab online and save it as your Personal.

You can edit, replace or remove any tab part or add personal notes – all changes will be seen only by you.

Personal tabs can be accessed anytime from any device, even offline.
Learn more »
comments
print report bad tab
3 comments total.
+1 reply
sandalsdude 10 Dec 03, 2003 07:00 PM

wrong buddy its |-----------------------------
|-----------------------------
|-----------------------------
|----7--x---------------------
|----9--x--7--x--5--x--11--7--
|----------9--x--7--x--9---9--

0 reply
JVDumarC 290 Oct 31, 2004 07:00 PM

It's absolutely wrong dude... >:D

+1 reply
DMac619 10 May 31, 2006 11:05 AM

|-----------------------------
|-----------------------------
|----7--x--------------6------
|----9--x--7--x--5--x--4--7--
|----------9--x--7--x-----9--
This Is How I Play It. Sounds Right To Me

guest
Wanna post a correction for this tab? Suggest correction