Oops, an error
Loading. Please wait.
We have an official Youre Gonna Go Far Kid tab made by UG professional guitarists. Check out the tab »
×

Youre Gonna Go Far Kid bass

version 2
version 2

Whole song

  • The other five star version on this site is missin... Show more
67,709 views 75 this week
8 commentsread comments
1 2 3 4 5
x 34
add to favorites
×
Save as Personal and add changes to this tab that will be seen only by you. Learn more ›
×
You can save this tab as Personal to edit and correct it or add notes. All changes will be seen only by you. Learn more »
launch autoscroll
font size
0
reset
guitar tuner
backing track
0:00
0:00
edit
Autoscroll
slow
fast
+/-
esc
set tempo
stop
Author
Difficulty
-------------------------------------------------------------------------------
                             YOU'RE GONNA GO FAR, KID - THE OFFSPRING
-------------------------------------------------------------------------------

Tabbed By : MusicMan24
e-mail: a7t1r1@hotmail.com

I'm sure this tab is 100% right.

And thanks to thunderhawk for pointing out the slide in the verse, and also,
their are a few little fills in the last chorus which I'm still trying to
figure out.

Tuning: Standard (EADG)

No bass in the intro, but if you want to play it with the guitar,
this is how you play it:

[Intro] x2
G|----------------------|
D|----------------------|
A|----------33----------|
E|55---11--------33-----|

[Verse 1] x1
G|----------------------------------|
D|----------------------------------|
A|--------88888888-33333333---------|
E|55555555-----------------33333\12-|

[Pre-Chorus] x1
G|---------------------------------------------------------------|
D|---------------------------------------------------------------|
A|----------------5555555555555555-8888888888888888-77777777-----|
E|1111111111111111-----------------------------------------------|

G|----------|
D|----------|
A|----------|
E|3-3-3-----|

[Chorus] x2
G|--------------------------------------|
D|--------------------------------------|
A|--------88888888-33333333-------------|
E|55555555-----------------33333333-----|

[Verse 2] x2  
G|-------------------------------|
D|-------------------------------|
A|--------------3-3-3------------|
E|5-5-5--1-1-1--------303030-----|

[Verse 1] x1
G|----------------------------------|
D|----------------------------------|
A|--------88888888-33333333---------|
E|55555555-----------------33333\12-|

[Pre-Chorus] x1
G|---------------------------------------------------------------|
D|---------------------------------------------------------------|
A|----------------5555555555555555-8888888888888888-77777777-----|
E|1111111111111111-----------------------------------------------|

G|----------|
D|----------|
A|----------|
E|3-3-3-----|

[Chorus] x2
G|--------------------------------------|
D|--------------------------------------|
A|--------88888888-33333333-------------|
E|55555555-----------------33333333-----|

[Pre-Solo] x1
G|----------|
D|7---9-----|
A|----------|
E|----------|

[Guitar Solo] x1  (Those are 10's, not 1's and opens)
G|---------------------------------------|
D|---------------------------------------|
A|1010101010101010-33333333-77777777-----|
E|---------------------------------------|

G|------------------------------------------------|
D|------------------------------------------------|
A|--------------------------33333333-55555555-----|
E|55555555-33333333-11111111----------------------|

[Chorus] x1
G|--------------------------------------|
D|--------------------------------------|
A|--------88888888-33333333-------------|
E|55555555-----------------33333333-----|

Then...

G|------------------------------------|
D|------------------------------------|
A|--------88888888-33333333-----------|
E|55555555-------------------3-3-3----|

[Chorus] x4
G|--------------------------------------|
D|--------------------------------------|
A|--------88888888-33333333-------------|
E|55555555-----------------33333333-----|

End on this

G|--------|
D|--------|
A|--------|
E|5-5-----|

PEACE OUT

************************************

| \  Slide down

************************************

            
            
Suggest correction
Creating personal tab
Creating personal tab
You can edit any tab online and save it as your Personal.

You can edit, replace or remove any tab part or add personal notes – all changes will be seen only by you.

Personal tabs can be accessed anytime from any device, even offline.
Learn more »
comments
print report bad tab
8 comments total. Showing first comments.
+7 reply
thunderhawk 535 Dec 28, 2008 06:02 PM

ya, this does look a lot better then the other 1 i am glad you tabed it out this is great! but at the end of the verse it sounds like he does a slid really quickly from 3 to 12. but still i am gonna print this off.

+3 reply
Caltelt 31 Feb 22, 2009 06:51 PM

Looks better than the other one. I'll check this one out.

+2 reply
Caltelt 31 Feb 23, 2009 02:49 PM

Ya this ones right.

guest
You may want to rate the tab now too:
select rating
Wanna post a correction for this tab? Suggest correction