Oops, an error
Loading. Please wait.
We have an official Youre Gonna Go Far Kid tab made by UG professional guitarists. Check out the tab »
×
4,353 views 1 this week
1 commentread comment
1 2 3 4 5
x 3
add to favorites
×
Save as Personal and add changes to this tab that will be seen only by you. Learn more ›
×
You can save this tab as Personal to edit and correct it or add notes. All changes will be seen only by you. Learn more »
launch autoscroll
font size
0
reset
how to read this tab
guitar tuner
backing track
0:00
0:00
edit
Autoscroll
slow
fast
+/-
esc
set tempo
stop
Author
----------------------------------------------------------------------------
You're Gonna Go Far, Kid - The Offspring
Rise and Fall, Rage and Grace
------------------------------------------------------------------------------
INTRO/VERSE Pt. 1 (x2)
e|----------------|
B|----------------|
G|---------55-----|
D|-77--33--55--55-|
A|-77--33--33--55-|
E|-55--11------33-|
----------------------------------------------------------------------------
VERSE Pt. 2
PALM MUTE (Start muted, slowly release, last set of power chords should be FULL)
e|-------------------------------------------------------------------------|
B|-------------------------------------------------------------------------|
G|-----------------10-10-10-10-10-10-10-10-5-5-5-5-5-5-5-5-----------------|
D|-7-7-7-7-7-7-7-7-10-10-10-10-10-10-10-10-5-5-5-5-5-5-5-5-5-5-5-5-5-5-5-5-|
A|-7-7-7-7-7-7-7-7-8--8--8--8--8--8--8--8--3-3-3-3-3-3-3-3-5-5-5-5-5-5-5-5-|
E|-5-5-5-5-5-5-5-5-----------------------------------------3-3-3-3-3-3-3-3-|
---------------------------------------------------------------------------
PRE-CHORUS (RHYTHM)
e|---------------------------------------|
B|---------------------------------------|
G|---------5/7-------10-10-------9-------|
D|-3-------5/7-(x16)-10-10-(x16)-9-(x12)-|
A|-3-(x16)-3/5-------8--8--------7-------|
E|-1-------------------------------------|
----------------------------------------------------------------------------
PRE-CHORUS (LEAD)
e|------------------------------------------|
B|------------------------------------------|
G|--10-9------10-9------10-9-5----9^^-------|
D|-7----7----7----7----7--------------5-5-5-|
A|------------------------------------5-5-5-|
E|------------------------------------3-3-3-|
----------------------------------------------------------------------------
CHORUS (x2)
e|-------------------------------------------------------------------------|
B|-------------------------------------------------------------------------|
G|-----------------10-10-10-10-10-10-10-10-5-5-5-5-5-5-5-5-----------------|
D|-7-7-7-7-7-7-7-7-10-10-10-10-10-10-10-10-5-5-5-5-5-5-5-5-5-5-5-5-5-5-5-5-|
A|-7-7-7-7-7-7-7-7-8--8--8--8--8--8--8--8--3-3-3-3-3-3-3-3-5-5-5-5-5-5-5-5-|
E|-5-5-5-5-5-5-5-5-----------------------------------------3-3-3-3-3-3-3-3-|
---------------------------------------------------------------------------
POST-CHORUS SOLO
e|--------------------------|
B|--------------------------|
G|--------------------------|
D|---------------------10p7-|
A|-7-7h10-7-7h10-7-7h10-----|
E|--------------------------|
----------------------------------------------------------------------------
AND THEN:
INTRO/VERSE Pt. 1 (x2)
VERSE Pt. 2
PRE-CHORUS
CHORUS (x2)
----------------------------------------------------------------------------
SOLO
e|--------------------------------------------------------------------------
B|-------------------------------------------------------------10-13------13
G|---------------------------------------------------------9-9------12-12---
D|-------------------------------10-9-6-6--10-9p7h9--9p6h7------------------
A|-10--10-12-10--10--10--10-12-10-------------------------------------------
E|---12--------12------12---------------------------------------------------
SOLO, Cont. (Strum as fast as possible)
e|------------19(x?)-20/-|
B|-17(x?)-20(x?)---------|
G|-----------------------|
D|-----------------------|
A|-----------------------|
E|-----------------------|
----------------------------------------------------------------------------
BASS SOLO
----------------------------------------------------------------------------
CHORUS (x4)
----------------------------------------------------------------------------
e|------------------------------|
B|------------------------------|
G|------------------------------|
D|---------------------10p7--77-|
A|-7-7h10-7-7h10-7-7h10------77-|
E|---------------------------55-|

            
            
Suggest correction
Creating personal tab
Creating personal tab
You can edit any tab online and save it as your Personal.

You can edit, replace or remove any tab part or add personal notes – all changes will be seen only by you.

Personal tabs can be accessed anytime from any device, even offline.
Learn more »
Give kudos to tab author, rate the tab!
1 2 3 4 5
comments
print report bad tab
1 comment total.
0 reply
offspring_punk 316 May 14, 2009 08:50 AM

Your little fill is wrong, solo is wrong and the pre-chorus is off. You added an extra C in there for no reason.

guest
You may want to rate the tab now too:
select rating
Wanna post a correction for this tab? Suggest correction